  0
SECTION
  2
HEADER
  9
$ACADVER
  1
AC1015
  9
$ACADMAINTVER
 70
     6
  9
$DWGCODEPAGE
  3
ANSI_1251
  9
$INSBASE
 10
0.0
 20
0.0
 30
0.0
  9
$EXTMIN
 10
1.000000000000000E+20
 20
1.000000000000000E+20
 30
1.000000000000000E+20
  9
$EXTMAX
 10
-1.000000000000000E+20
 20
-1.000000000000000E+20
 30
-1.000000000000000E+20
  9
$LIMMIN
 10
0.0
 20
0.0
  9
$LIMMAX
 10
420.0
 20
297.0
  9
$ORTHOMODE
 70
     0
  9
$REGENMODE
 70
     1
  9
$FILLMODE
 70
     1
  9
$QTEXTMODE
 70
     0
  9
$MIRRTEXT
 70
     0
  9
$LTSCALE
 40
1.0
  9
$ATTMODE
 70
     1
  9
$TEXTSIZE
 40
2.5
  9
$TRACEWID
 40
1.0
  9
$TEXTSTYLE
  7
Standard
  9
$CLAYER
  8
0
  9
$CELTYPE
  6
ByLayer
  9
$CECOLOR
 62
   256
  9
$CELTSCALE
 40
1.0
  9
$DISPSILH
 70
     0
  9
$DIMSCALE
 40
1.0
  9
$DIMASZ
 40
2.5
  9
$DIMEXO
 40
0.625
  9
$DIMDLI
 40
3.75
  9
$DIMRND
 40
0.0
  9
$DIMDLE
 40
0.0
  9
$DIMEXE
 40
1.25
  9
$DIMTP
 40
0.0
  9
$DIMTM
 40
0.0
  9
$DIMTXT
 40
2.5
  9
$DIMCEN
 40
2.5
  9
$DIMTSZ
 40
0.0
  9
$DIMTOL
 70
     0
  9
$DIMLIM
 70
     0
  9
$DIMTIH
 70
     0
  9
$DIMTOH
 70
     0
  9
$DIMSE1
 70
     0
  9
$DIMSE2
 70
     0
  9
$DIMTAD
 70
     1
  9
$DIMZIN
 70
     8
  9
$DIMBLK
  1

  9
$DIMASO
 70
     1
  9
$DIMSHO
 70
     1
  9
$DIMPOST
  1

  9
$DIMAPOST
  1

  9
$DIMALT
 70
     0
  9
$DIMALTD
 70
     3
  9
$DIMALTF
 40
0.03937007874016
  9
$DIMLFAC
 40
1.0
  9
$DIMTOFL
 70
     1
  9
$DIMTVP
 40
0.0
  9
$DIMTIX
 70
     0
  9
$DIMSOXD
 70
     0
  9
$DIMSAH
 70
     0
  9
$DIMBLK1
  1

  9
$DIMBLK2
  1

  9
$DIMSTYLE
  2
ISO-25
  9
$DIMCLRD
 70
     0
  9
$DIMCLRE
 70
     0
  9
$DIMCLRT
 70
     0
  9
$DIMTFAC
 40
1.0
  9
$DIMGAP
 40
0.625
  9
$DIMJUST
 70
     0
  9
$DIMSD1
 70
     0
  9
$DIMSD2
 70
     0
  9
$DIMTOLJ
 70
     0
  9
$DIMTZIN
 70
     8
  9
$DIMALTZ
 70
     0
  9
$DIMALTTZ
 70
     0
  9
$DIMUPT
 70
     0
  9
$DIMDEC
 70
     2
  9
$DIMTDEC
 70
     2
  9
$DIMALTU
 70
     2
  9
$DIMALTTD
 70
     3
  9
$DIMTXSTY
  7
Standard
  9
$DIMAUNIT
 70
     0
  9
$DIMADEC
 70
     0
  9
$DIMALTRND
 40
0.0
  9
$DIMAZIN
 70
     0
  9
$DIMDSEP
 70
    44
  9
$DIMATFIT
 70
     3
  9
$DIMFRAC
 70
     0
  9
$DIMLDRBLK
  1

  9
$DIMLUNIT
 70
     2
  9
$DIMLWD
 70
    -2
  9
$DIMLWE
 70
    -2
  9
$DIMTMOVE
 70
     0
  9
$LUNITS
 70
     2
  9
$LUPREC
 70
     3
  9
$SKETCHINC
 40
1.0
  9
$FILLETRAD
 40
10.0
  9
$AUNITS
 70
     0
  9
$AUPREC
 70
     0
  9
$MENU
  1
.
  9
$ELEVATION
 40
0.0
  9
$PELEVATION
 40
0.0
  9
$THICKNESS
 40
0.0
  9
$LIMCHECK
 70
     0
  9
$CHAMFERA
 40
10.0
  9
$CHAMFERB
 40
10.0
  9
$CHAMFERC
 40
20.0
  9
$CHAMFERD
 40
0.0
  9
$SKPOLY
 70
     0
  9
$TDCREATE
 40
2455022.637359514
  9
$TDUCREATE
 40
2455022.637359514
  9
$TDUPDATE
 40
2456247.643115035
  9
$TDUUPDATE
 40
2456247.643115035
  9
$TDINDWG
 40
0.0000000116
  9
$TDUSRTIMER
 40
2456247.642452349
  9
$USRTIMER
 70
     1
  9
$ANGBASE
 50
0.0
  9
$ANGDIR
 70
     0
  9
$PDMODE
 70
     0
  9
$PDSIZE
 40
0.0
  9
$PLINEWID
 40
0.0
  9
$SPLFRAME
 70
     0
  9
$SPLINETYPE
 70
     6
  9
$SPLINESEGS
 70
     8
  9
$HANDSEED
  5
11C
  9
$SURFTAB1
 70
     6
  9
$SURFTAB2
 70
     6
  9
$SURFTYPE
 70
     6
  9
$SURFU
 70
     6
  9
$SURFV
 70
     6
  9
$UCSBASE
  2

  9
$UCSNAME
  2

  9
$UCSORG
 10
0.0
 20
0.0
 30
0.0
  9
$UCSXDIR
 10
1.0
 20
0.0
 30
0.0
  9
$UCSYDIR
 10
0.0
 20
1.0
 30
0.0
  9
$UCSORTHOREF
  2

  9
$UCSORTHOVIEW
 70
     0
  9
$UCSORGTOP
 10
0.0
 20
0.0
 30
0.0
  9
$UCSORGBOTTOM
 10
0.0
 20
0.0
 30
0.0
  9
$UCSORGLEFT
 10
0.0
 20
0.0
 30
0.0
  9
$UCSORGRIGHT
 10
0.0
 20
0.0
 30
0.0
  9
$UCSORGFRONT
 10
0.0
 20
0.0
 30
0.0
  9
$UCSORGBACK
 10
0.0
 20
0.0
 30
0.0
  9
$PUCSBASE
  2

  9
$PUCSNAME
  2

  9
$PUCSORG
 10
0.0
 20
0.0
 30
0.0
  9
$PUCSXDIR
 10
1.0
 20
0.0
 30
0.0
  9
$PUCSYDIR
 10
0.0
 20
1.0
 30
0.0
  9
$PUCSORTHOREF
  2

  9
$PUCSORTHOVIEW
 70
     0
  9
$PUCSORGTOP
 10
0.0
 20
0.0
 30
0.0
  9
$PUCSORGBOTTOM
 10
0.0
 20
0.0
 30
0.0
  9
$PUCSORGLEFT
 10
0.0
 20
0.0
 30
0.0
  9
$PUCSORGRIGHT
 10
0.0
 20
0.0
 30
0.0
  9
$PUCSORGFRONT
 10
0.0
 20
0.0
 30
0.0
  9
$PUCSORGBACK
 10
0.0
 20
0.0
 30
0.0
  9
$USERI1
 70
     0
  9
$USERI2
 70
     0
  9
$USERI3
 70
     0
  9
$USERI4
 70
     0
  9
$USERI5
 70
     0
  9
$USERR1
 40
0.0
  9
$USERR2
 40
0.0
  9
$USERR3
 40
0.0
  9
$USERR4
 40
0.0
  9
$USERR5
 40
0.0
  9
$WORLDVIEW
 70
     1
  9
$SHADEDGE
 70
     3
  9
$SHADEDIF
 70
    70
  9
$TILEMODE
 70
     1
  9
$MAXACTVP
 70
    64
  9
$PINSBASE
 10
0.0
 20
0.0
 30
0.0
  9
$PLIMCHECK
 70
     0
  9
$PEXTMIN
 10
1.000000000000000E+20
 20
1.000000000000000E+20
 30
1.000000000000000E+20
  9
$PEXTMAX
 10
-1.000000000000000E+20
 20
-1.000000000000000E+20
 30
-1.000000000000000E+20
  9
$PLIMMIN
 10
0.0
 20
0.0
  9
$PLIMMAX
 10
420.0
 20
297.0
  9
$UNITMODE
 70
     0
  9
$VISRETAIN
 70
     1
  9
$PLINEGEN
 70
     0
  9
$PSLTSCALE
 70
     1
  9
$TREEDEPTH
 70
  3020
  9
$CMLSTYLE
  2
Standard
  9
$CMLJUST
 70
     0
  9
$CMLSCALE
 40
20.0
  9
$PROXYGRAPHICS
 70
     1
  9
$MEASUREMENT
 70
     1
  9
$CELWEIGHT
370
    -1
  9
$ENDCAPS
280
     0
  9
$JOINSTYLE
280
     0
  9
$LWDISPLAY
290
     0
  9
$INSUNITS
 70
     4
  9
$HYPERLINKBASE
  1

  9
$STYLESHEET
  1

  9
$XEDIT
290
     1
  9
$CEPSNTYPE
380
     0
  9
$PSTYLEMODE
290
     1
  9
$FINGERPRINTGUID
  2
{EC6BB858-51AA-46EC-B484-6C9CC7AB3E2E}
  9
$VERSIONGUID
  2
{FAEB1C32-E019-11D5-929B-00C0DF256EC4}
  9
$EXTNAMES
290
     1
  9
$PSVPSCALE
 40
0.0
  9
$OLESTARTUP
290
     0
  0
ENDSEC
  0
SECTION
  2
CLASSES
  0
CLASS
  1
ACDBDICTIONARYWDFLT
  2
AcDbDictionaryWithDefault
  3
ObjectDBX Classes
 90
        0
280
     0
281
     0
  0
CLASS
  1
VISUALSTYLE
  2
AcDbVisualStyle
  3
ObjectDBX Classes
 90
     4095
280
     0
281
     0
  0
CLASS
  1
TABLESTYLE
  2
AcDbTableStyle
  3
ObjectDBX Classes
 90
     4095
280
     0
281
     0
  0
CLASS
  1
DICTIONARYVAR
  2
AcDbDictionaryVar
  3
ObjectDBX Classes
 90
        0
280
     0
281
     0
  0
CLASS
  1
SCALE
  2
AcDbScale
  3
ObjectDBX Classes
 90
     1153
280
     0
281
     0
  0
CLASS
  1
CELLSTYLEMAP
  2
AcDbCellStyleMap
  3
ObjectDBX Classes
 90
     1152
280
     0
281
     0
  0
CLASS
  1
RASTERVARIABLES
  2
AcDbRasterVariables
  3
ISM
 90
        0
280
     0
281
     0
  0
CLASS
  1
MATERIAL
  2
AcDbMaterial
  3
ObjectDBX Classes
 90
     1153
280
     0
281
     0
  0
CLASS
  1
ACDBPLACEHOLDER
  2
AcDbPlaceHolder
  3
ObjectDBX Classes
 90
        0
280
     0
281
     0
  0
CLASS
  1
LAYOUT
  2
AcDbLayout
  3
ObjectDBX Classes
 90
        0
280
     0
281
     0
  0
ENDSEC
  0
SECTION
  2
TABLES
  0
TABLE
  2
VPORT
  5
8
330
0
100
AcDbSymbolTable
 70
     1
  0
VPORT
  5
29
330
8
100
AcDbSymbolTableRecord
100
AcDbViewportTableRecord
  2
*Active
 70
     0
 10
0.0
 20
0.0
 11
1.0
 21
1.0
 12
3631.766589749059
 22
9455.636301359966
 13
0.0
 23
0.0
 14
10.0
 24
10.0
 15
10.0
 25
10.0
 16
0.0
 26
0.0
 36
1.0
 17
-134.1869158878508
 27
0.0
 37
0.0
 40
26728.61931785064
 41
2.248421052631579
 42
50.0
 43
0.0
 44
0.0
 50
0.0
 51
0.0
 71
    16
 72
  1000
 73
     1
 74
     3
 75
     0
 76
     0
 77
     0
 78
     0
281
     0
 65
     1
110
0.0
120
0.0
130
0.0
111
1.0
121
0.0
131
0.0
112
0.0
122
1.0
132
0.0
 79
     0
146
0.0
  0
ENDTAB
  0
TABLE
  2
LTYPE
  5
5
330
0
100
AcDbSymbolTable
 70
     1
  0
LTYPE
  5
14
330
5
100
AcDbSymbolTableRecord
100
AcDbLinetypeTableRecord
  2
ByBlock
 70
     0
  3

 72
    65
 73
     0
 40
0.0
  0
LTYPE
  5
15
330
5
100
AcDbSymbolTableRecord
100
AcDbLinetypeTableRecord
  2
ByLayer
 70
     0
  3

 72
    65
 73
     0
 40
0.0
  0
LTYPE
  5
16
330
5
100
AcDbSymbolTableRecord
100
AcDbLinetypeTableRecord
  2
Continuous
 70
     0
  3
Solid line
 72
    65
 73
     0
 40
0.0
  0
ENDTAB
  0
TABLE
  2
LAYER
  5
2
330
0
100
AcDbSymbolTable
 70
     3
  0
LAYER
  5
10
330
2
100
AcDbSymbolTableRecord
100
AcDbLayerTableRecord
  2
0
 70
     0
 62
     7
  6
Continuous
370
    -3
390
F
  0
LAYER
  5
77
330
2
100
AcDbSymbolTableRecord
100
AcDbLayerTableRecord
  2
fluid
 70
     0
 62
     4
  6
Continuous
370
    -3
390
F
1001
AcAecLayerStandard
1000

1000

  0
LAYER
  5
8C
330
2
100
AcDbSymbolTableRecord
100
AcDbLayerTableRecord
  2
insets
 70
     0
 62
    30
  6
Continuous
370
    -3
390
F
1001
AcAecLayerStandard
1000

1000

  0
ENDTAB
  0
TABLE
  2
STYLE
  5
3
330
0
100
AcDbSymbolTable
 70
     1
  0
STYLE
  5
11
330
3
100
AcDbSymbolTableRecord
100
AcDbTextStyleTableRecord
  2
Standard
 70
     0
 40
0.0
 41
1.0
 50
0.0
 71
     0
 42
2.5
  3
txt
  4

  0
ENDTAB
  0
TABLE
  2
VIEW
  5
6
330
0
100
AcDbSymbolTable
 70
     0
  0
ENDTAB
  0
TABLE
  2
UCS
  5
7
330
0
100
AcDbSymbolTable
 70
     0
  0
ENDTAB
  0
TABLE
  2
APPID
  5
9
330
0
100
AcDbSymbolTable
 70
     2
  0
APPID
  5
12
330
9
100
AcDbSymbolTableRecord
100
AcDbRegAppTableRecord
  2
ACAD
 70
     0
  0
APPID
  5
79
330
9
100
AcDbSymbolTableRecord
100
AcDbRegAppTableRecord
  2
AcAecLayerStandard
 70
     0
  0
ENDTAB
  0
TABLE
  2
DIMSTYLE
  5
A
330
0
100
AcDbSymbolTable
 70
     1
100
AcDbDimStyleTable
  0
DIMSTYLE
105
27
330
A
100
AcDbSymbolTableRecord
100
AcDbDimStyleTableRecord
  2
ISO-25
 70
     0
 41
2.5
 42
0.625
 43
3.75
 44
1.25
 73
     0
 74
     0
 77
     1
 78
     8
140
2.5
141
2.5
143
0.03937007874016
147
0.625
171
     3
172
     1
178
     0
271
     2
272
     2
274
     3
278
    44
283
     0
284
     8
340
11
  0
ENDTAB
  0
TABLE
  2
BLOCK_RECORD
  5
1
330
0
100
AcDbSymbolTable
 70
     1
  0
BLOCK_RECORD
  5
1F
330
1
100
AcDbSymbolTableRecord
100
AcDbBlockTableRecord
  2
*Model_Space
340
22
  0
BLOCK_RECORD
  5
1B
330
1
100
AcDbSymbolTableRecord
100
AcDbBlockTableRecord
  2
*Paper_Space
340
1E
  0
BLOCK_RECORD
  5
23
330
1
100
AcDbSymbolTableRecord
100
AcDbBlockTableRecord
  2
*Paper_Space0
340
26
  0
ENDTAB
  0
ENDSEC
  0
SECTION
  2
BLOCKS
  0
BLOCK
  5
20
330
1F
100
AcDbEntity
  8
0
100
AcDbBlockBegin
  2
*Model_Space
 70
     0
 10
0.0
 20
0.0
 30
0.0
  3
*Model_Space
  1

  0
ENDBLK
  5
21
330
1F
100
AcDbEntity
  8
0
100
AcDbBlockEnd
  0
BLOCK
  5
1C
330
1B
100
AcDbEntity
 67
     1
  8
0
100
AcDbBlockBegin
  2
*Paper_Space
 70
     0
 10
0.0
 20
0.0
 30
0.0
  3
*Paper_Space
  1

  0
ENDBLK
  5
1D
330
1B
100
AcDbEntity
 67
     1
  8
0
100
AcDbBlockEnd
  0
BLOCK
  5
24
330
23
100
AcDbEntity
  8
0
100
AcDbBlockBegin
  2
*Paper_Space0
 70
     0
 10
0.0
 20
0.0
 30
0.0
  3
*Paper_Space0
  1

  0
ENDBLK
  5
25
330
23
100
AcDbEntity
  8
0
100
AcDbBlockEnd
  0
ENDSEC
  0
SECTION
  2
ENTITIES
  0
LWPOLYLINE
  5
76
330
1F
100
AcDbEntity
  8
0
100
AcDbPolyline
 90
        2
 70
     0
 43
0.0
 10
6550.296131795156
 20
7074.908552847803
 10
7050.296131795156
 20
7074.908552847803
  0
LWPOLYLINE
  5
7B
330
1F
100
AcDbEntity
  8
0
100
AcDbPolyline
 90
        2
 70
     0
 43
0.0
 10
5600.296131795156
 20
7074.908552847803
 10
5100.296131795156
 20
7074.908552847803
  0
LWPOLYLINE
  5
7C
330
1F
100
AcDbEntity
  8
0
100
AcDbPolyline
 90
        5
 70
     0
 43
0.0
 10
7050.296131795156
 20
7074.908552847803
 10
7946.742741201888
 20
7074.908552847803
 10
8153.849522388424
 20
7074.908552847803
 10
8300.296131795156
 20
7221.355162254535
 10
8300.296131795156
 20
7428.461943441071
  0
LWPOLYLINE
  5
7D
330
1F
100
AcDbEntity
  8
0
100
AcDbPolyline
 90
        5
 70
     0
 43
0.0
 10
5100.296131795156
 20
7074.908552847803
 10
4203.849522388424
 20
7074.908552847803
 10
3996.742741201888
 20
7074.908552847803
 10
3850.296131795156
 20
7221.355162254535
 10
3850.296131795156
 20
7428.461943441071
  0
TEXT
  5
7E
330
1F
100
AcDbEntity
  8
0
100
AcDbText
 10
1093.8193028284
 20
1002.706736842112
 30
0.0
 40
734.2803532077291
  1
30µm
100
AcDbText
  0
LWPOLYLINE
  5
80
330
1F
100
AcDbEntity
  8
0
100
AcDbPolyline
 90
        3
 70
     0
 43
0.0
 10
6060.296131795156
 20
7179.908552847803
 10
5965.296131795156
 20
7179.908552847803
 10
5600.296131795156
 20
7074.908552847803
  0
LWPOLYLINE
  5
81
330
1F
100
AcDbEntity
  8
0
100
AcDbPolyline
 90
        3
 70
     0
 43
0.0
 10
6090.296131795156
 20
7179.908552847803
 10
6185.296131795156
 20
7179.908552847803
 10
6550.296131795156
 20
7074.908552847803
  0
LWPOLYLINE
  5
82
330
1F
100
AcDbEntity
  8
0
100
AcDbPolyline
 90
        2
 70
     0
 43
0.0
 10
6550.296131795156
 20
13126.41896604562
 10
7050.296131795156
 20
13126.41896604562
  0
LWPOLYLINE
  5
83
330
1F
100
AcDbEntity
  8
0
100
AcDbPolyline
 90
        2
 70
     0
 43
0.0
 10
6365.192346451688
 20
13376.41896604562
 10
7050.296131795156
 20
13376.41896604562
  0
LWPOLYLINE
  5
84
330
1F
100
AcDbEntity
  8
0
100
AcDbPolyline
 90
        2
 70
     0
 43
0.0
 10
5785.296131795156
 20
13376.41896604562
 10
5100.296131795156
 20
13376.41896604562
  0
LWPOLYLINE
  5
85
330
1F
100
AcDbEntity
  8
0
100
AcDbPolyline
 90
        2
 70
     0
 43
0.0
 10
5600.296131795156
 20
13126.41896604562
 10
5100.296131795156
 20
13126.41896604562
  0
LWPOLYLINE
  5
86
330
1F
100
AcDbEntity
  8
0
100
AcDbPolyline
 90
        5
 70
     0
 43
0.0
 10
7050.296131795156
 20
13376.41896604562
 10
7946.742741201888
 20
13376.41896604562
 10
8153.849522388424
 20
13376.41896604562
 10
8300.296131795156
 20
13229.97235663889
 10
8300.296131795156
 20
13022.86557545235
  0
LWPOLYLINE
  5
87
330
1F
100
AcDbEntity
  8
0
100
AcDbPolyline
 90
        4
 70
     0
 43
0.0
 10
7050.296131795156
 20
13126.41896604562
 10
7946.742741201888
 20
13126.41896604562
 10
8050.296131795156
 20
13126.41896604562
 10
8050.296131795156
 20
13022.86557545235
  0
LWPOLYLINE
  5
88
330
1F
100
AcDbEntity
  8
0
100
AcDbPolyline
 90
        5
 70
     0
 43
0.0
 10
5100.296131795156
 20
13376.41896604562
 10
4203.849522388424
 20
13376.41896604562
 10
3996.742741201888
 20
13376.41896604562
 10
3850.296131795156
 20
13229.97235663889
 10
3850.296131795156
 20
13022.86557545235
  0
LWPOLYLINE
  5
89
330
1F
100
AcDbEntity
  8
0
100
AcDbPolyline
 90
        4
 70
     0
 43
0.0
 10
5100.296131795156
 20
13126.41896604562
 10
4203.849522388424
 20
13126.41896604562
 10
4100.296131795156
 20
13126.41896604562
 10
4100.296131795156
 20
13022.86557545235
  0
LWPOLYLINE
  5
8A
330
1F
100
AcDbEntity
  8
0
100
AcDbPolyline
 90
       18
 70
     0
 43
0.0
 10
6365.296131795156
 20
13750.61394718238
 10
6468.140606589266
 20
13842.4604680093
 10
6542.66173967754
 20
13971.53485675553
 10
6575.826763945981
 20
14116.84032214545
 10
6564.688821446267
 20
14265.46583591682
 10
6510.237567247474
 20
14404.20536893864
 10
6417.311234240769
 20
14520.73130485359
 10
6294.166734914179
 20
14604.68980288984
 10
6151.745998443454
 20
14648.62078205125
 10
6002.703732267139
 20
14648.62078205125
 10
5860.282995796646
 20
14604.68980288984
 10
5737.138496469823
 20
14520.73130485359
 10
5644.212163463118
 20
14404.20536893864
 10
5589.760909264325
 20
14265.46583591682
 10
5578.622966764844
 20
14116.84032214545
 10
5611.787991033285
 20
13971.53485675553
 10
5686.309124121326
 20
13842.4604680093
 10
5785.296131795156
 20
13752.43292415662
  0
LWPOLYLINE
  5
8B
330
1F
100
AcDbEntity
  8
0
100
AcDbPolyline
 90
       20
 70
     0
 43
0.0
 10
5982.534986756393
 20
14015.32082521667
 10
5852.533130911761
 20
13824.64312344768
 10
5765.375377087272
 20
13905.51370070824
 10
5705.926818824257
 20
14008.48162405648
 10
5679.469721410074
 20
14124.39774163564
 10
5688.354914055322
 20
14242.96239770933
 10
5731.792908401112
 20
14353.64060227289
 10
5805.92404802551
 20
14446.5981111476
 10
5904.161455853726
 20
14513.57524173266
 10
6017.776307092397
 20
14548.62078205125
 10
6136.673423618427
 20
14548.62078205125
 10
6250.288274857099
 20
14513.57524173266
 10
6348.525682685082
 20
14446.5981111476
 10
6422.65682230948
 20
14353.64060227289
 10
6466.09481665527
 20
14242.96239770933
 10
6474.980009300518
 20
14124.39774163564
 10
6448.522911886568
 20
14008.48162405648
 10
6389.07435362332
 20
13905.51370070824
 10
6301.916599798831
 20
13824.64312344768
 10
6171.914743954199
 20
14015.32082521667
  0
LWPOLYLINE
  5
8D
330
1F
100
AcDbEntity
  8
0
100
AcDbPolyline
 90
       14
 70
     0
 43
0.0
 10
6172.006091226707
 20
14224.19853002969
 10
6172.439745364361
 20
14333.02409451544
 10
6170.312802282744
 20
14361.40617749591
 10
6159.914587495499
 20
14387.90039668466
 10
6142.169028018485
 20
14410.15262443882
 10
6118.652894685627
 20
14426.18565267006
 10
6091.455699143116
 20
14434.57487646044
 10
6062.994031567476
 20
14434.57487646044
 10
6035.796836024965
 20
14426.18565267012
 10
6012.28070269234
 20
14410.15262443882
 10
5994.535143215093
 20
14387.90039668466
 10
5984.136928427848
 20
14361.40617749591
 10
5982.009985346231
 20
14333.02409451544
 10
5982.534986756393
 20
14201.27491962574
  0
LWPOLYLINE
  5
8E
330
1F
100
AcDbEntity
  8
0
100
AcDbPolyline
 90
        2
 70
     0
 43
0.0
 10
6171.914743954199
 20
14015.32082521667
 10
6172.006091226707
 20
14224.19853002969
  0
LWPOLYLINE
  5
8F
330
1F
100
AcDbEntity
  8
0
100
AcDbPolyline
 90
        2
 70
     0
 43
0.0
 10
5982.534986756393
 20
14015.32082521667
 10
5982.534986756393
 20
14201.27491962574
  0
LWPOLYLINE
  5
90
330
1F
100
AcDbEntity
  8
0
100
AcDbPolyline
 90
        2
 70
     0
 43
0.0
 10
5785.296131795156
 20
13376.41896604562
 10
5785.296131795156
 20
13436.57247352922
  0
LWPOLYLINE
  5
91
330
1F
100
AcDbEntity
  8
0
100
AcDbPolyline
 90
        5
 70
     0
 43
0.0
 10
5770.296131795156
 20
13556.57247352922
 10
5820.296131795156
 20
13556.57247352922
 10
5820.296131795156
 20
13506.57247352922
 10
5770.296131795156
 20
13506.57247352922
 10
5770.296131795156
 20
13556.57247352922
  0
LWPOLYLINE
  5
92
330
1F
100
AcDbEntity
  8
0
100
AcDbPolyline
 90
        5
 70
     0
 43
0.0
 10
5840.296131795156
 20
13556.57247352922
 10
5890.296131795156
 20
13556.57247352922
 10
5890.296131795156
 20
13506.57247352922
 10
5840.296131795156
 20
13506.57247352922
 10
5840.296131795156
 20
13556.57247352922
  0
LWPOLYLINE
  5
93
330
1F
100
AcDbEntity
  8
0
100
AcDbPolyline
 90
        5
 70
     0
 43
0.0
 10
5910.296131795156
 20
13556.57247352922
 10
5960.296131795156
 20
13556.57247352922
 10
5960.296131795156
 20
13506.57247352922
 10
5910.296131795156
 20
13506.57247352922
 10
5910.296131795156
 20
13556.57247352922
  0
LWPOLYLINE
  5
94
330
1F
100
AcDbEntity
  8
0
100
AcDbPolyline
 90
        5
 70
     0
 43
0.0
 10
5980.296131795156
 20
13556.57247352922
 10
6030.296131795156
 20
13556.57247352922
 10
6030.296131795156
 20
13506.57247352922
 10
5980.296131795156
 20
13506.57247352922
 10
5980.296131795156
 20
13556.57247352922
  0
LWPOLYLINE
  5
95
330
1F
100
AcDbEntity
  8
0
100
AcDbPolyline
 90
        5
 70
     0
 43
0.0
 10
6050.296131795156
 20
13556.57247352922
 10
6100.296131795156
 20
13556.57247352922
 10
6100.296131795156
 20
13506.57247352922
 10
6050.296131795156
 20
13506.57247352922
 10
6050.296131795156
 20
13556.57247352922
  0
LWPOLYLINE
  5
96
330
1F
100
AcDbEntity
  8
0
100
AcDbPolyline
 90
        5
 70
     0
 43
0.0
 10
6120.296131795156
 20
13556.57247352922
 10
6170.296131795156
 20
13556.57247352922
 10
6170.296131795156
 20
13506.57247352922
 10
6120.296131795156
 20
13506.57247352922
 10
6120.296131795156
 20
13556.57247352922
  0
LWPOLYLINE
  5
97
330
1F
100
AcDbEntity
  8
0
100
AcDbPolyline
 90
        5
 70
     0
 43
0.0
 10
5805.296131795156
 20
13626.57247352922
 10
5855.296131795156
 20
13626.57247352922
 10
5855.296131795156
 20
13576.57247352922
 10
5805.296131795156
 20
13576.57247352922
 10
5805.296131795156
 20
13626.57247352922
  0
LWPOLYLINE
  5
98
330
1F
100
AcDbEntity
  8
0
100
AcDbPolyline
 90
        5
 70
     0
 43
0.0
 10
5875.296131795156
 20
13626.57247352922
 10
5925.296131795156
 20
13626.57247352922
 10
5925.296131795156
 20
13576.57247352922
 10
5875.296131795156
 20
13576.57247352922
 10
5875.296131795156
 20
13626.57247352922
  0
LWPOLYLINE
  5
99
330
1F
100
AcDbEntity
  8
0
100
AcDbPolyline
 90
        5
 70
     0
 43
0.0
 10
5945.296131795156
 20
13626.57247352922
 10
5995.296131795156
 20
13626.57247352922
 10
5995.296131795156
 20
13576.57247352922
 10
5945.296131795156
 20
13576.57247352922
 10
5945.296131795156
 20
13626.57247352922
  0
LWPOLYLINE
  5
9A
330
1F
100
AcDbEntity
  8
0
100
AcDbPolyline
 90
        5
 70
     0
 43
0.0
 10
6015.296131795156
 20
13626.57247352922
 10
6065.296131795156
 20
13626.57247352922
 10
6065.296131795156
 20
13576.57247352922
 10
6015.296131795156
 20
13576.57247352922
 10
6015.296131795156
 20
13626.57247352922
  0
LWPOLYLINE
  5
9B
330
1F
100
AcDbEntity
  8
0
100
AcDbPolyline
 90
        5
 70
     0
 43
0.0
 10
6085.296131795156
 20
13626.57247352922
 10
6135.296131795156
 20
13626.57247352922
 10
6135.296131795156
 20
13576.57247352922
 10
6085.296131795156
 20
13576.57247352922
 10
6085.296131795156
 20
13626.57247352922
  0
LWPOLYLINE
  5
9C
330
1F
100
AcDbEntity
  8
0
100
AcDbPolyline
 90
        5
 70
     0
 43
0.0
 10
5805.296131795156
 20
13486.57247352922
 10
5855.296131795156
 20
13486.57247352922
 10
5855.296131795156
 20
13436.57247352922
 10
5805.296131795156
 20
13436.57247352922
 10
5805.296131795156
 20
13486.57247352922
  0
LWPOLYLINE
  5
9D
330
1F
100
AcDbEntity
  8
0
100
AcDbPolyline
 90
        5
 70
     0
 43
0.0
 10
5875.296131795156
 20
13486.57247352922
 10
5925.296131795156
 20
13486.57247352922
 10
5925.296131795156
 20
13436.57247352922
 10
5875.296131795156
 20
13436.57247352922
 10
5875.296131795156
 20
13486.57247352922
  0
LWPOLYLINE
  5
9E
330
1F
100
AcDbEntity
  8
0
100
AcDbPolyline
 90
        5
 70
     0
 43
0.0
 10
5945.296131795156
 20
13486.57247352922
 10
5995.296131795156
 20
13486.57247352922
 10
5995.296131795156
 20
13436.57247352922
 10
5945.296131795156
 20
13436.57247352922
 10
5945.296131795156
 20
13486.57247352922
  0
LWPOLYLINE
  5
9F
330
1F
100
AcDbEntity
  8
0
100
AcDbPolyline
 90
        5
 70
     0
 43
0.0
 10
6015.296131795156
 20
13486.57247352922
 10
6065.296131795156
 20
13486.57247352922
 10
6065.296131795156
 20
13436.57247352922
 10
6015.296131795156
 20
13436.57247352922
 10
6015.296131795156
 20
13486.57247352922
  0
LWPOLYLINE
  5
A0
330
1F
100
AcDbEntity
  8
0
100
AcDbPolyline
 90
        5
 70
     0
 43
0.0
 10
6085.296131795156
 20
13486.57247352922
 10
6135.296131795156
 20
13486.57247352922
 10
6135.296131795156
 20
13436.57247352922
 10
6085.296131795156
 20
13436.57247352922
 10
6085.296131795156
 20
13486.57247352922
  0
LWPOLYLINE
  5
A1
330
1F
100
AcDbEntity
  8
0
100
AcDbPolyline
 90
        6
 70
     0
 43
0.0
 10
5785.296131795156
 20
13752.43292415662
 10
5785.296131795156
 20
13576.57247352922
 10
5750.296131795156
 20
13576.57247352922
 10
5750.296131795156
 20
13486.57247352922
 10
5785.296131795156
 20
13486.57247352922
 10
5785.296131795156
 20
13436.57247352922
  0
LWPOLYLINE
  5
A2
330
1F
100
AcDbEntity
  8
0
100
AcDbPolyline
 90
        5
 70
     0
 43
0.0
 10
6190.296131795156
 20
13556.57247352922
 10
6240.296131795156
 20
13556.57247352922
 10
6240.296131795156
 20
13506.57247352922
 10
6190.296131795156
 20
13506.57247352922
 10
6190.296131795156
 20
13556.57247352922
  0
LWPOLYLINE
  5
A3
330
1F
100
AcDbEntity
  8
0
100
AcDbPolyline
 90
        5
 70
     0
 43
0.0
 10
6260.296131795156
 20
13556.57247352922
 10
6310.296131795156
 20
13556.57247352922
 10
6310.296131795156
 20
13506.57247352922
 10
6260.296131795156
 20
13506.57247352922
 10
6260.296131795156
 20
13556.57247352922
  0
LWPOLYLINE
  5
A4
330
1F
100
AcDbEntity
  8
0
100
AcDbPolyline
 90
        5
 70
     0
 43
0.0
 10
6330.296131795156
 20
13556.57247352922
 10
6380.296131795156
 20
13556.57247352922
 10
6380.296131795156
 20
13506.57247352922
 10
6330.296131795156
 20
13506.57247352922
 10
6330.296131795156
 20
13556.57247352922
  0
LWPOLYLINE
  5
A5
330
1F
100
AcDbEntity
  8
0
100
AcDbPolyline
 90
        5
 70
     0
 43
0.0
 10
6155.296131795156
 20
13626.57247352922
 10
6205.296131795156
 20
13626.57247352922
 10
6205.296131795156
 20
13576.57247352922
 10
6155.296131795156
 20
13576.57247352922
 10
6155.296131795156
 20
13626.57247352922
  0
LWPOLYLINE
  5
A6
330
1F
100
AcDbEntity
  8
0
100
AcDbPolyline
 90
        5
 70
     0
 43
0.0
 10
6225.296131795156
 20
13626.57247352922
 10
6275.296131795156
 20
13626.57247352922
 10
6275.296131795156
 20
13576.57247352922
 10
6225.296131795156
 20
13576.57247352922
 10
6225.296131795156
 20
13626.57247352922
  0
LWPOLYLINE
  5
A7
330
1F
100
AcDbEntity
  8
0
100
AcDbPolyline
 90
        5
 70
     0
 43
0.0
 10
6295.296131795156
 20
13626.57247352922
 10
6345.296131795156
 20
13626.57247352922
 10
6345.296131795156
 20
13576.57247352922
 10
6295.296131795156
 20
13576.57247352922
 10
6295.296131795156
 20
13626.57247352922
  0
LWPOLYLINE
  5
A8
330
1F
100
AcDbEntity
  8
0
100
AcDbPolyline
 90
        5
 70
     0
 43
0.0
 10
6155.296131795156
 20
13486.57247352922
 10
6205.296131795156
 20
13486.57247352922
 10
6205.296131795156
 20
13436.57247352922
 10
6155.296131795156
 20
13436.57247352922
 10
6155.296131795156
 20
13486.57247352922
  0
LWPOLYLINE
  5
A9
330
1F
100
AcDbEntity
  8
0
100
AcDbPolyline
 90
        5
 70
     0
 43
0.0
 10
6225.296131795156
 20
13486.57247352922
 10
6275.296131795156
 20
13486.57247352922
 10
6275.296131795156
 20
13436.57247352922
 10
6225.296131795156
 20
13436.57247352922
 10
6225.296131795156
 20
13486.57247352922
  0
LWPOLYLINE
  5
AA
330
1F
100
AcDbEntity
  8
0
100
AcDbPolyline
 90
        5
 70
     0
 43
0.0
 10
6295.296131795156
 20
13486.57247352922
 10
6345.296131795156
 20
13486.57247352922
 10
6345.296131795156
 20
13436.57247352922
 10
6295.296131795156
 20
13436.57247352922
 10
6295.296131795156
 20
13486.57247352922
  0
LWPOLYLINE
  5
AB
330
1F
100
AcDbEntity
  8
0
100
AcDbPolyline
 90
        6
 70
     0
 43
0.0
 10
6365.296131795156
 20
13750.61394718238
 10
6365.296131795156
 20
13576.57247352922
 10
6400.296131795156
 20
13576.57247352922
 10
6400.296131795156
 20
13486.57247352922
 10
6365.296131795156
 20
13486.57247352922
 10
6365.296131795156
 20
13436.57247352922
  0
LWPOLYLINE
  5
AC
330
1F
100
AcDbEntity
  8
0
100
AcDbPolyline
 90
        2
 70
     0
 43
0.0
 10
6365.192346451688
 20
13376.41896604562
 10
6365.296131795156
 20
13436.57247352922
  0
LWPOLYLINE
  5
AD
330
1F
100
AcDbEntity
  8
0
100
AcDbPolyline
 90
        2
 70
     0
 43
0.0
 10
5600.296131795156
 20
13126.41896604562
 10
6550.296131795156
 20
13126.41896604562
  0
LWPOLYLINE
  5
AE
330
1F
100
AcDbEntity
  8
0
100
AcDbPolyline
 90
        2
 70
     0
 43
0.0
 10
3850.296131795156
 20
7428.461943441071
 10
3850.296131795156
 20
13022.86557545235
  0
LWPOLYLINE
  5
AF
330
1F
100
AcDbEntity
  8
0
100
AcDbPolyline
 90
        2
 70
     0
 43
0.0
 10
4100.296131795156
 20
7209.908552847803
 10
4100.296131795156
 20
13022.86557545235
  0
LWPOLYLINE
  5
B0
330
1F
100
AcDbEntity
  8
0
100
AcDbPolyline
 90
        2
 70
     0
 43
0.0
 10
8050.296131795156
 20
13022.86557545235
 10
8050.296131795156
 20
7209.908552847803
  0
LWPOLYLINE
  5
B1
330
1F
100
AcDbEntity
  8
0
100
AcDbPolyline
 90
        2
 70
     0
 43
0.0
 10
8300.296131795156
 20
7428.461943441071
 10
8300.296131795156
 20
13022.86557545235
  0
LWPOLYLINE
  5
B2
330
1F
100
AcDbEntity
  8
0
100
AcDbPolyline
 90
        3
 70
     0
 43
0.0
 10
7583.745737045188
 20
7269.908552847803
 10
7615.19234645192
 20
7301.355162254535
 10
7615.19234645192
 20
7508.461943441071
  0
LWPOLYLINE
  5
B3
330
1F
100
AcDbEntity
  8
0
100
AcDbPolyline
 90
        3
 70
     0
 43
0.0
 10
4566.742741201888
 20
7269.908552847803
 10
4535.296131795156
 20
7301.355162254535
 10
4535.296131795156
 20
7508.461943441071
  0
LWPOLYLINE
  5
B4
330
1F
100
AcDbEntity
  8
0
100
AcDbPolyline
 90
        2
 70
     0
 43
0.0
 10
4685.296131795156
 20
10147.11036885345
 10
4685.296131795156
 20
7420.110368853435
  0
LWPOLYLINE
  5
B5
330
1F
100
AcDbEntity
  8
0
100
AcDbPolyline
 90
        2
 70
     0
 43
0.0
 10
4535.296131795156
 20
10147.11036885345
 10
4535.296131795156
 20
7508.461943441071
  0
LWPOLYLINE
  5
B6
330
1F
100
AcDbEntity
  8
0
100
AcDbPolyline
 90
        2
 70
     0
 43
0.0
 10
7465.19234645192
 20
10147.11036885345
 10
7465.19234645192
 20
7420.110368853435
  0
LWPOLYLINE
  5
B7
330
1F
100
AcDbEntity
  8
0
100
AcDbPolyline
 90
        2
 70
     0
 43
0.0
 10
7615.19234645192
 20
10147.11036885345
 10
7615.19234645192
 20
7508.461943441071
  0
LWPOLYLINE
  5
B8
330
1F
100
AcDbEntity
  8
0
100
AcDbPolyline
 90
        2
 70
     0
 43
0.0
 10
6060.296131795156
 20
7269.908552847803
 10
4566.742741201888
 20
7269.908552847803
  0
LWPOLYLINE
  5
B9
330
1F
100
AcDbEntity
  8
0
100
AcDbPolyline
 90
        3
 70
     0
 43
0.0
 10
4685.296131795156
 20
7420.110368853435
 10
5965.296131795156
 20
7299.908552847803
 10
6060.296131795156
 20
7299.908552847803
  0
LWPOLYLINE
  5
BA
330
1F
100
AcDbEntity
  8
0
100
AcDbPolyline
 90
        3
 70
     0
 43
0.0
 10
7465.19234645192
 20
7420.110368853435
 10
6185.296131795156
 20
7299.908552847803
 10
6090.296131795156
 20
7299.908552847803
  0
LWPOLYLINE
  5
BB
330
1F
100
AcDbEntity
  8
0
100
AcDbPolyline
 90
        2
 70
     0
 43
0.0
 10
6090.296131795156
 20
7269.908552847803
 10
7583.745737045188
 20
7269.908552847803
  0
LWPOLYLINE
  5
BC
330
1F
100
AcDbEntity
  8
0
100
AcDbPolyline
 90
        2
 70
     0
 43
0.0
 10
6060.296131795156
 20
7209.908552847803
 10
4100.296131795156
 20
7209.908552847803
  0
LWPOLYLINE
  5
BD
330
1F
100
AcDbEntity
  8
0
100
AcDbPolyline
 90
        2
 70
     0
 43
0.0
 10
6090.296131795156
 20
7209.908552847803
 10
8050.296131795156
 20
7209.908552847803
  0
LWPOLYLINE
  5
BE
330
1F
100
AcDbEntity
  8
0
100
AcDbPolyline
 90
        6
 70
     0
 43
0.0
 10
6151.745998443454
 20
17148.62078205125
 10
128.0943157895235
 20
17148.62078205125
 10
128.0943157895235
 20
252.7067368421122
 10
12022.49794780079
 20
252.7067368421122
 10
12022.49794780079
 20
17148.62078205125
 10
6151.745998443454
 20
17148.62078205125
  0
LWPOLYLINE
  5
BF
330
1F
100
AcDbEntity
  8
0
100
AcDbPolyline
 90
        5
 70
     1
 43
0.0
 10
6151.745998443454
 20
16898.62078205125
 10
378.0943157895235
 20
16898.62078205125
 10
378.0943157895235
 20
502.7067368421122
 10
11772.49794780079
 20
502.7067368421122
 10
11772.49794780079
 20
16898.62078205125
  0
LWPOLYLINE
  5
C0
330
1F
100
AcDbEntity
  8
0
100
AcDbPolyline
 90
        2
 70
     0
 43
0.0
 10
6090.296131795156
 20
7399.908552847803
 10
6206.95693641284
 20
8341.204020522768
  0
LWPOLYLINE
  5
C1
330
1F
100
AcDbEntity
  8
0
100
AcDbPolyline
 90
        2
 70
     0
 43
0.0
 10
6060.296131795156
 20
7399.908552847803
 10
5943.753884023405
 20
8341.204020522768
  0
LWPOLYLINE
  5
C2
330
1F
100
AcDbEntity
  8
0
100
AcDbPolyline
 90
       18
 70
     0
 43
0.0
 10
6358.058174854959
 20
8574.575568582863
 10
6467.313887057244
 20
8675.950054811488
 10
6541.835020145285
 20
8805.02444355766
 10
6575.000044413726
 20
8950.329908947635
 10
6563.862101914012
 20
9098.95542271901
 10
6509.410847715451
 20
9237.694955740822
 10
6416.484514708747
 20
9354.220891655757
 10
6293.340015381924
 20
9438.179389692014
 10
6150.919278911198
 20
9482.11036885342
 10
6001.877012735116
 20
9482.11036885342
 10
5859.456276264391
 20
9438.179389692014
 10
5736.3117769378
 20
9354.220891655757
 10
5643.385443930863
 20
9237.694955740822
 10
5588.934189732303
 20
9098.95542271901
 10
5577.796247232589
 20
8950.329908947635
 10
5610.96127150103
 20
8805.02444355766
 10
5685.482404589071
 20
8675.950054811488
 10
5794.738116791355
 20
8574.575568582863
  0
LWPOLYLINE
  5
C3
330
1F
100
AcDbEntity
  8
0
100
AcDbPolyline
 90
       20
 70
     0
 43
0.0
 10
5981.708267224371
 20
8848.810412018793
 10
5851.706411379739
 20
8658.132710249862
 10
5764.548657555017
 20
8739.003287510423
 10
5705.100099292002
 20
8841.971210858668
 10
5678.643001878052
 20
8957.887328437879
 10
5687.528194523067
 20
9076.451984511514
 10
5730.966188868857
 20
9187.130189075076
 10
5805.097328493255
 20
9280.087697949784
 10
5903.334736321471
 20
9347.064828534829
 10
6016.949587560142
 20
9382.11036885342
 10
6135.846704086172
 20
9382.11036885342
 10
6249.461555324844
 20
9347.064828534829
 10
6347.69896315306
 20
9280.087697949784
 10
6421.830102777458
 20
9187.130189075076
 10
6465.268097123248
 20
9076.451984511514
 10
6474.153289768263
 20
8957.887328437879
 10
6447.696192354313
 20
8841.971210858668
 10
6388.247634091298
 20
8739.003287510423
 10
6301.089880266809
 20
8658.132710249862
 10
6171.088024421944
 20
8848.810412018793
  0
LWPOLYLINE
  5
C4
330
1F
100
AcDbEntity
  8
0
100
AcDbPolyline
 90
       14
 70
     0
 43
0.0
 10
6171.179371694685
 20
9057.68811683188
 10
6171.613025832339
 20
9166.513681317621
 10
6169.486082750722
 20
9194.895764298097
 10
6159.087867963477
 20
9221.38998348685
 10
6141.34230848623
 20
9243.642211241007
 10
6117.826175153605
 20
9259.675239472243
 10
6090.628979610861
 20
9268.064463262563
 10
6062.167312035454
 20
9268.064463262563
 10
6034.970116492943
 20
9259.6752394723
 10
6011.453983160085
 20
9243.642211241007
 10
5993.708423682838
 20
9221.38998348685
 10
5983.310208895593
 20
9194.895764298097
 10
5981.183265814208
 20
9166.513681317621
 10
5981.708267224371
 20
9034.76450642792
  0
LWPOLYLINE
  5
C5
330
1F
100
AcDbEntity
  8
0
100
AcDbPolyline
 90
        2
 70
     0
 43
0.0
 10
6171.088024421944
 20
8848.810412018793
 10
6171.179371694685
 20
9057.68811683188
  0
LWPOLYLINE
  5
C6
330
1F
100
AcDbEntity
  8
0
100
AcDbPolyline
 90
        2
 70
     0
 43
0.0
 10
5981.708267224371
 20
8848.810412018793
 10
5981.708267224371
 20
9034.76450642792
  0
LWPOLYLINE
  5
C7
330
1F
100
AcDbEntity
  8
0
100
AcDbPolyline
 90
        2
 70
     0
 43
0.0
 10
6060.296131795156
 20
7299.908552847803
 10
6060.296131795156
 20
7399.908552847803
  0
LWPOLYLINE
  5
C8
330
1F
100
AcDbEntity
  8
0
100
AcDbPolyline
 90
        2
 70
     0
 43
0.0
 10
6090.296131795156
 20
7299.908552847803
 10
6090.296131795156
 20
7399.908552847803
  0
LWPOLYLINE
  5
C9
330
1F
100
AcDbEntity
  8
0
100
AcDbPolyline
 90
        4
 70
     0
 43
0.0
 10
5794.738116791355
 20
8574.575568582863
 10
5820.296131795156
 20
8549.423588259204
 10
5855.296131795156
 20
8479.423588259204
 10
5943.753884023405
 20
8341.204020522768
  0
LWPOLYLINE
  5
CA
330
1F
100
AcDbEntity
  8
0
100
AcDbPolyline
 90
        4
 70
     0
 43
0.0
 10
6358.058174854959
 20
8574.575568582863
 10
6330.296131795156
 20
8549.423588259204
 10
6295.296131795156
 20
8479.423588259204
 10
6206.95693641284
 20
8341.204020522768
  0
CIRCLE
  5
CB
330
1F
100
AcDbEntity
  8
0
100
AcDbCircle
 10
5865.296131795156
 20
8544.423588259204
 30
0.0
 40
15.0
  0
CIRCLE
  5
CC
330
1F
100
AcDbEntity
  8
0
100
AcDbCircle
 10
5935.296131795156
 20
8544.423588259204
 30
0.0
 40
15.0
  0
CIRCLE
  5
CD
330
1F
100
AcDbEntity
  8
0
100
AcDbCircle
 10
6005.296131795156
 20
8544.423588259204
 30
0.0
 40
15.0
  0
CIRCLE
  5
CE
330
1F
100
AcDbEntity
  8
0
100
AcDbCircle
 10
6075.296131795156
 20
8544.423588259204
 30
0.0
 40
15.0
  0
CIRCLE
  5
CF
330
1F
100
AcDbEntity
  8
0
100
AcDbCircle
 10
5900.296131795156
 20
8484.423588259204
 30
0.0
 40
15.0
  0
CIRCLE
  5
D0
330
1F
100
AcDbEntity
  8
0
100
AcDbCircle
 10
5970.296131795156
 20
8484.423588259204
 30
0.0
 40
15.0
  0
CIRCLE
  5
D1
330
1F
100
AcDbEntity
  8
0
100
AcDbCircle
 10
6040.296131795156
 20
8484.423588259204
 30
0.0
 40
15.0
  0
CIRCLE
  5
D2
330
1F
100
AcDbEntity
  8
0
100
AcDbCircle
 10
6110.296131795156
 20
8484.423588259204
 30
0.0
 40
15.0
  0
CIRCLE
  5
D3
330
1F
100
AcDbEntity
  8
0
100
AcDbCircle
 10
6145.296131795156
 20
8544.423588259204
 30
0.0
 40
15.0
  0
CIRCLE
  5
D4
330
1F
100
AcDbEntity
  8
0
100
AcDbCircle
 10
6215.296131795156
 20
8544.423588259204
 30
0.0
 40
15.0
  0
CIRCLE
  5
D5
330
1F
100
AcDbEntity
  8
0
100
AcDbCircle
 10
6285.296131795156
 20
8544.423588259204
 30
0.0
 40
15.0
  0
CIRCLE
  5
D6
330
1F
100
AcDbEntity
  8
0
100
AcDbCircle
 10
6180.296131795156
 20
8484.423588259204
 30
0.0
 40
15.0
  0
CIRCLE
  5
D7
330
1F
100
AcDbEntity
  8
0
100
AcDbCircle
 10
6250.296131795156
 20
8484.423588259204
 30
0.0
 40
15.0
  0
CIRCLE
  5
D8
330
1F
100
AcDbEntity
  8
0
100
AcDbCircle
 10
5935.296131795156
 20
8424.423588259204
 30
0.0
 40
15.0
  0
CIRCLE
  5
D9
330
1F
100
AcDbEntity
  8
0
100
AcDbCircle
 10
6005.296131795156
 20
8424.423588259204
 30
0.0
 40
15.0
  0
CIRCLE
  5
DA
330
1F
100
AcDbEntity
  8
0
100
AcDbCircle
 10
6075.296131795156
 20
8424.423588259204
 30
0.0
 40
15.0
  0
CIRCLE
  5
DB
330
1F
100
AcDbEntity
  8
0
100
AcDbCircle
 10
6145.296131795156
 20
8424.423588259204
 30
0.0
 40
15.0
  0
CIRCLE
  5
DC
330
1F
100
AcDbEntity
  8
0
100
AcDbCircle
 10
6215.296131795156
 20
8424.423588259204
 30
0.0
 40
15.0
  0
CIRCLE
  5
DD
330
1F
100
AcDbEntity
  8
0
100
AcDbCircle
 10
5970.296131795156
 20
8364.423588259204
 30
0.0
 40
15.0
  0
CIRCLE
  5
DE
330
1F
100
AcDbEntity
  8
0
100
AcDbCircle
 10
6040.296131795156
 20
8364.423588259204
 30
0.0
 40
15.0
  0
CIRCLE
  5
DF
330
1F
100
AcDbEntity
  8
0
100
AcDbCircle
 10
6110.296131795156
 20
8364.423588259204
 30
0.0
 40
15.0
  0
CIRCLE
  5
E0
330
1F
100
AcDbEntity
  8
0
100
AcDbCircle
 10
6180.296131795156
 20
8364.423588259204
 30
0.0
 40
15.0
  0
LWPOLYLINE
  5
E1
330
1F
100
AcDbEntity
  8
0
100
AcDbPolyline
 90
        2
 70
     0
 43
0.0
 10
6060.296131795156
 20
7269.908552847803
 10
6060.296131795156
 20
7209.908552847803
  0
LWPOLYLINE
  5
E2
330
1F
100
AcDbEntity
  8
0
100
AcDbPolyline
 90
        2
 70
     0
 43
0.0
 10
6090.296131795156
 20
7269.908552847803
 10
6090.296131795156
 20
7209.908552847803
  0
LWPOLYLINE
  5
E3
330
1F
100
AcDbEntity
  8
0
100
AcDbPolyline
 90
       18
 70
     0
 43
0.0
 10
5792.534088735352
 20
3905.241537112684
 10
5683.278376533068
 20
3803.867050884059
 10
5608.757243445027
 20
3674.792662137887
 10
5575.592219176586
 20
3529.487196747912
 10
5586.730161676067
 20
3380.861682976538
 10
5641.18141587486
 20
3242.122149954725
 10
5734.107748881564
 20
3125.596214039775
 10
5857.252248208388
 20
3041.637716003519
 10
5999.67298467888
 20
2997.706736842112
 10
6148.715250855195
 20
2997.706736842112
 10
6291.135987325921
 20
3041.637716003519
 10
6414.280486652511
 20
3125.596214039775
 10
6507.206819659215
 20
3242.122149954725
 10
6561.658073858009
 20
3380.861682976538
 10
6572.796016357723
 20
3529.487196747912
 10
6539.630992089049
 20
3674.792662137887
 10
6465.109859001008
 20
3803.867050884059
 10
6355.854146798956
 20
3905.241537112684
  0
LWPOLYLINE
  5
E4
330
1F
100
AcDbEntity
  8
0
100
AcDbPolyline
 90
       20
 70
     0
 43
0.0
 10
6168.883996365941
 20
3631.006693676754
 10
6298.885852210573
 20
3821.684395445685
 10
6386.043606035295
 20
3740.813818185125
 10
6445.49216429831
 20
3637.845894836879
 10
6471.94926171226
 20
3521.929777257727
 10
6463.064069067244
 20
3403.365121184033
 10
6419.626074721222
 20
3292.686916620471
 10
6345.494935096824
 20
3199.729407745763
 10
6247.257527268841
 20
3132.752277160704
 10
6133.642676030169
 20
3097.706736842112
 10
6014.745559504139
 20
3097.706736842112
 10
5901.130708265468
 20
3132.752277160704
 10
5802.893300437252
 20
3199.729407745763
 10
5728.762160812854
 20
3292.686916620471
 10
5685.324166467064
 20
3403.365121184033
 10
5676.438973821816
 20
3521.929777257727
 10
5702.896071235999
 20
3637.845894836879
 10
5762.344629499014
 20
3740.813818185125
 10
5849.502383323503
 20
3821.684395445685
 10
5979.504239168135
 20
3631.006693676754
  0
LWPOLYLINE
  5
E5
330
1F
100
AcDbEntity
  8
0
100
AcDbPolyline
 90
       14
 70
     0
 43
0.0
 10
5979.412891895627
 20
3422.128988863667
 10
5978.979237757972
 20
3313.303424377926
 10
5981.10618083959
 20
3284.92134139745
 10
5991.504395626835
 20
3258.427122208697
 10
6009.249955104082
 20
3236.17489445454
 10
6032.766088436707
 20
3220.141866223305
 10
6059.963283979218
 20
3211.752642433043
 10
6088.424951554858
 20
3211.752642433043
 10
6115.622147097369
 20
3220.141866223305
 10
6139.138280429994
 20
3236.17489445454
 10
6156.883839907241
 20
3258.427122208697
 10
6167.282054694486
 20
3284.92134139745
 10
6169.408997776103
 20
3313.303424377926
 10
6168.883996365941
 20
3445.052599267627
  0
LWPOLYLINE
  5
E6
330
1F
100
AcDbEntity
  8
0
100
AcDbPolyline
 90
        2
 70
     0
 43
0.0
 10
5979.504239168135
 20
3631.006693676754
 10
5979.412891895627
 20
3422.128988863667
  0
LWPOLYLINE
  5
E7
330
1F
100
AcDbEntity
  8
0
100
AcDbPolyline
 90
        2
 70
     0
 43
0.0
 10
6168.883996365941
 20
3631.006693676754
 10
6168.883996365941
 20
3445.052599267627
  0
LWPOLYLINE
  5
E8
330
1F
100
AcDbEntity
  8
0
100
AcDbPolyline
 90
        2
 70
     0
 43
0.0
 10
5792.534088735352
 20
3905.241537112684
 10
5825.296131795156
 20
3969.908552847803
  0
LWPOLYLINE
  5
E9
330
1F
100
AcDbEntity
  8
0
100
AcDbPolyline
 90
        2
 70
     0
 43
0.0
 10
6355.854146798956
 20
3905.241537112684
 10
6325.296131795156
 20
3969.908552847803
  0
LWPOLYLINE
  5
EA
330
1F
100
AcDbEntity
  8
0
100
AcDbPolyline
 90
        2
 70
     0
 43
0.0
 10
6325.296131795156
 20
3969.908552847803
 10
6105.296131795156
 20
6574.908552847803
  0
LWPOLYLINE
  5
EB
330
1F
100
AcDbEntity
  8
0
100
AcDbPolyline
 90
        2
 70
     0
 43
0.0
 10
5825.296131795156
 20
3969.908552847803
 10
6045.296131795156
 20
6574.908552847803
  0
LWPOLYLINE
  5
EC
330
1F
100
AcDbEntity
  8
0
100
AcDbPolyline
 90
        2
 70
     0
 43
0.0
 10
6090.296131795156
 20
7179.908552847803
 10
6090.296131795156
 20
7089.908552847803
  0
LWPOLYLINE
  5
ED
330
1F
100
AcDbEntity
  8
0
100
AcDbPolyline
 90
        2
 70
     0
 43
0.0
 10
6060.296131795156
 20
7179.908552847803
 10
6060.296131795156
 20
7089.908552847803
  0
LWPOLYLINE
  5
EE
330
1F
100
AcDbEntity
  8
0
100
AcDbPolyline
 90
        2
 70
     0
 43
0.0
 10
6090.296131795156
 20
7089.908552847803
 10
6105.296131795156
 20
7074.908552847803
  0
LWPOLYLINE
  5
EF
330
1F
100
AcDbEntity
  8
0
100
AcDbPolyline
 90
        2
 70
     0
 43
0.0
 10
6060.296131795156
 20
7089.908552847803
 10
6045.296131795156
 20
7074.908552847803
  0
LWPOLYLINE
  5
F0
330
1F
100
AcDbEntity
  8
0
100
AcDbPolyline
 90
        2
 70
     0
 43
0.0
 10
6045.296131795156
 20
7074.908552847803
 10
6045.296131795156
 20
6574.908552847803
  0
LWPOLYLINE
  5
F1
330
1F
100
AcDbEntity
  8
0
100
AcDbPolyline
 90
        2
 70
     0
 43
0.0
 10
6105.296131795156
 20
7074.908552847803
 10
6105.296131795156
 20
6574.908552847803
  0
LWPOLYLINE
  5
F2
330
1F
100
AcDbEntity
  8
0
100
AcDbPolyline
 90
        5
 70
     0
 43
0.0
 10
6365.192346451688
 20
10500.66375944672
 10
7261.638955858652
 20
10500.66375944672
 10
7468.745737045188
 20
10500.66375944672
 10
7615.19234645192
 20
10354.21715003999
 10
7615.19234645192
 20
10147.11036885345
  0
LWPOLYLINE
  5
F3
330
1F
100
AcDbEntity
  8
0
100
AcDbPolyline
 90
        4
 70
     0
 43
0.0
 10
6365.192346451688
 20
10350.66375944672
 10
7261.638955858652
 20
10350.66375944672
 10
7465.19234645192
 20
10350.66375944672
 10
7465.19234645192
 20
10147.11036885345
  0
LWPOLYLINE
  5
F4
330
1F
100
AcDbEntity
  8
0
100
AcDbPolyline
 90
        5
 70
     0
 43
0.0
 10
5785.296131795156
 20
10500.66375944672
 10
4888.849522388424
 20
10500.66375944672
 10
4681.742741201888
 20
10500.66375944672
 10
4535.296131795156
 20
10354.21715003999
 10
4535.296131795156
 20
10147.11036885345
  0
LWPOLYLINE
  5
F5
330
1F
100
AcDbEntity
  8
0
100
AcDbPolyline
 90
        4
 70
     0
 43
0.0
 10
5785.296131795156
 20
10350.66375944672
 10
4888.849522388424
 20
10350.66375944672
 10
4685.296131795156
 20
10350.66375944672
 10
4685.296131795156
 20
10147.11036885345
  0
LWPOLYLINE
  5
F6
330
1F
100
AcDbEntity
  8
0
100
AcDbPolyline
 90
       18
 70
     0
 43
0.0
 10
6365.296131795156
 20
10874.85874058348
 10
6468.140606589266
 20
10966.7052614104
 10
6542.66173967754
 20
11095.77965015663
 10
6575.826763945981
 20
11241.08511554655
 10
6564.688821446267
 20
11389.71062931792
 10
6510.237567247474
 20
11528.45016233974
 10
6417.311234240769
 20
11644.97609825469
 10
6294.166734914179
 20
11728.93459629094
 10
6151.745998443454
 20
11772.86557545235
 10
6002.703732267139
 20
11772.86557545235
 10
5860.282995796646
 20
11728.93459629094
 10
5737.138496469823
 20
11644.97609825469
 10
5644.212163463118
 20
11528.45016233974
 10
5589.760909264325
 20
11389.71062931792
 10
5578.622966764844
 20
11241.08511554655
 10
5611.787991033285
 20
11095.77965015663
 10
5686.309124121326
 20
10966.7052614104
 10
5785.296131795156
 20
10876.67771755772
  0
LWPOLYLINE
  5
F7
330
1F
100
AcDbEntity
  8
0
100
AcDbPolyline
 90
       20
 70
     0
 43
0.0
 10
5982.534986756393
 20
11139.56561861777
 10
5852.533130911761
 20
10948.88791684878
 10
5765.375377087272
 20
11029.75849410934
 10
5705.926818824257
 20
11132.72641745758
 10
5679.469721410074
 20
11248.64253503674
 10
5688.354914055322
 20
11367.20719111043
 10
5731.792908401112
 20
11477.88539567399
 10
5805.92404802551
 20
11570.8429045487
 10
5904.161455853726
 20
11637.82003513376
 10
6017.776307092397
 20
11672.86557545235
 10
6136.673423618427
 20
11672.86557545235
 10
6250.288274857099
 20
11637.82003513376
 10
6348.525682685082
 20
11570.8429045487
 10
6422.65682230948
 20
11477.88539567399
 10
6466.09481665527
 20
11367.20719111043
 10
6474.980009300518
 20
11248.64253503674
 10
6448.522911886568
 20
11132.72641745758
 10
6389.07435362332
 20
11029.75849410934
 10
6301.916599798831
 20
10948.88791684878
 10
6171.914743954199
 20
11139.56561861777
  0
LWPOLYLINE
  5
F8
330
1F
100
AcDbEntity
  8
0
100
AcDbPolyline
 90
       14
 70
     0
 43
0.0
 10
6172.006091226707
 20
11348.44332343079
 10
6172.439745364361
 20
11457.26888791654
 10
6170.312802282744
 20
11485.65097089701
 10
6159.914587495499
 20
11512.14519008576
 10
6142.169028018485
 20
11534.39741783992
 10
6118.652894685627
 20
11550.43044607116
 10
6091.455699143116
 20
11558.81966986154
 10
6062.994031567476
 20
11558.81966986154
 10
6035.796836024965
 20
11550.43044607122
 10
6012.28070269234
 20
11534.39741783992
 10
5994.535143215093
 20
11512.14519008576
 10
5984.136928427848
 20
11485.65097089701
 10
5982.009985346231
 20
11457.26888791654
 10
5982.534986756393
 20
11325.51971302684
  0
LWPOLYLINE
  5
F9
330
1F
100
AcDbEntity
  8
0
100
AcDbPolyline
 90
        2
 70
     0
 43
0.0
 10
6171.914743954199
 20
11139.56561861777
 10
6172.006091226707
 20
11348.44332343079
  0
LWPOLYLINE
  5
FA
330
1F
100
AcDbEntity
  8
0
100
AcDbPolyline
 90
        2
 70
     0
 43
0.0
 10
5982.534986756393
 20
11139.56561861777
 10
5982.534986756393
 20
11325.51971302684
  0
LWPOLYLINE
  5
FB
330
1F
100
AcDbEntity
  8
0
100
AcDbPolyline
 90
        2
 70
     0
 43
0.0
 10
5785.296131795156
 20
10500.66375944672
 10
5785.296131795156
 20
10560.81726693032
  0
LWPOLYLINE
  5
FC
330
1F
100
AcDbEntity
  8
0
100
AcDbPolyline
 90
        5
 70
     0
 43
0.0
 10
5770.296131795156
 20
10680.81726693032
 10
5820.296131795156
 20
10680.81726693032
 10
5820.296131795156
 20
10630.81726693032
 10
5770.296131795156
 20
10630.81726693032
 10
5770.296131795156
 20
10680.81726693032
  0
LWPOLYLINE
  5
FD
330
1F
100
AcDbEntity
  8
0
100
AcDbPolyline
 90
        5
 70
     0
 43
0.0
 10
5840.296131795156
 20
10680.81726693032
 10
5890.296131795156
 20
10680.81726693032
 10
5890.296131795156
 20
10630.81726693032
 10
5840.296131795156
 20
10630.81726693032
 10
5840.296131795156
 20
10680.81726693032
  0
LWPOLYLINE
  5
FE
330
1F
100
AcDbEntity
  8
0
100
AcDbPolyline
 90
        5
 70
     0
 43
0.0
 10
5910.296131795156
 20
10680.81726693032
 10
5960.296131795156
 20
10680.81726693032
 10
5960.296131795156
 20
10630.81726693032
 10
5910.296131795156
 20
10630.81726693032
 10
5910.296131795156
 20
10680.81726693032
  0
LWPOLYLINE
  5
FF
330
1F
100
AcDbEntity
  8
0
100
AcDbPolyline
 90
        5
 70
     0
 43
0.0
 10
5980.296131795156
 20
10680.81726693032
 10
6030.296131795156
 20
10680.81726693032
 10
6030.296131795156
 20
10630.81726693032
 10
5980.296131795156
 20
10630.81726693032
 10
5980.296131795156
 20
10680.81726693032
  0
LWPOLYLINE
  5
100
330
1F
100
AcDbEntity
  8
0
100
AcDbPolyline
 90
        5
 70
     0
 43
0.0
 10
6050.296131795156
 20
10680.81726693032
 10
6100.296131795156
 20
10680.81726693032
 10
6100.296131795156
 20
10630.81726693032
 10
6050.296131795156
 20
10630.81726693032
 10
6050.296131795156
 20
10680.81726693032
  0
LWPOLYLINE
  5
101
330
1F
100
AcDbEntity
  8
0
100
AcDbPolyline
 90
        5
 70
     0
 43
0.0
 10
6120.296131795156
 20
10680.81726693032
 10
6170.296131795156
 20
10680.81726693032
 10
6170.296131795156
 20
10630.81726693032
 10
6120.296131795156
 20
10630.81726693032
 10
6120.296131795156
 20
10680.81726693032
  0
LWPOLYLINE
  5
102
330
1F
100
AcDbEntity
  8
0
100
AcDbPolyline
 90
        5
 70
     0
 43
0.0
 10
5805.296131795156
 20
10750.81726693032
 10
5855.296131795156
 20
10750.81726693032
 10
5855.296131795156
 20
10700.81726693032
 10
5805.296131795156
 20
10700.81726693032
 10
5805.296131795156
 20
10750.81726693032
  0
LWPOLYLINE
  5
103
330
1F
100
AcDbEntity
  8
0
100
AcDbPolyline
 90
        5
 70
     0
 43
0.0
 10
5875.296131795156
 20
10750.81726693032
 10
5925.296131795156
 20
10750.81726693032
 10
5925.296131795156
 20
10700.81726693032
 10
5875.296131795156
 20
10700.81726693032
 10
5875.296131795156
 20
10750.81726693032
  0
LWPOLYLINE
  5
104
330
1F
100
AcDbEntity
  8
0
100
AcDbPolyline
 90
        5
 70
     0
 43
0.0
 10
5945.296131795156
 20
10750.81726693032
 10
5995.296131795156
 20
10750.81726693032
 10
5995.296131795156
 20
10700.81726693032
 10
5945.296131795156
 20
10700.81726693032
 10
5945.296131795156
 20
10750.81726693032
  0
LWPOLYLINE
  5
105
330
1F
100
AcDbEntity
  8
0
100
AcDbPolyline
 90
        5
 70
     0
 43
0.0
 10
6015.296131795156
 20
10750.81726693032
 10
6065.296131795156
 20
10750.81726693032
 10
6065.296131795156
 20
10700.81726693032
 10
6015.296131795156
 20
10700.81726693032
 10
6015.296131795156
 20
10750.81726693032
  0
LWPOLYLINE
  5
106
330
1F
100
AcDbEntity
  8
0
100
AcDbPolyline
 90
        5
 70
     0
 43
0.0
 10
6085.296131795156
 20
10750.81726693032
 10
6135.296131795156
 20
10750.81726693032
 10
6135.296131795156
 20
10700.81726693032
 10
6085.296131795156
 20
10700.81726693032
 10
6085.296131795156
 20
10750.81726693032
  0
LWPOLYLINE
  5
107
330
1F
100
AcDbEntity
  8
0
100
AcDbPolyline
 90
        5
 70
     0
 43
0.0
 10
5805.296131795156
 20
10610.81726693032
 10
5855.296131795156
 20
10610.81726693032
 10
5855.296131795156
 20
10560.81726693032
 10
5805.296131795156
 20
10560.81726693032
 10
5805.296131795156
 20
10610.81726693032
  0
LWPOLYLINE
  5
108
330
1F
100
AcDbEntity
  8
0
100
AcDbPolyline
 90
        5
 70
     0
 43
0.0
 10
5875.296131795156
 20
10610.81726693032
 10
5925.296131795156
 20
10610.81726693032
 10
5925.296131795156
 20
10560.81726693032
 10
5875.296131795156
 20
10560.81726693032
 10
5875.296131795156
 20
10610.81726693032
  0
LWPOLYLINE
  5
109
330
1F
100
AcDbEntity
  8
0
100
AcDbPolyline
 90
        5
 70
     0
 43
0.0
 10
5945.296131795156
 20
10610.81726693032
 10
5995.296131795156
 20
10610.81726693032
 10
5995.296131795156
 20
10560.81726693032
 10
5945.296131795156
 20
10560.81726693032
 10
5945.296131795156
 20
10610.81726693032
  0
LWPOLYLINE
  5
10A
330
1F
100
AcDbEntity
  8
0
100
AcDbPolyline
 90
        5
 70
     0
 43
0.0
 10
6015.296131795156
 20
10610.81726693032
 10
6065.296131795156
 20
10610.81726693032
 10
6065.296131795156
 20
10560.81726693032
 10
6015.296131795156
 20
10560.81726693032
 10
6015.296131795156
 20
10610.81726693032
  0
LWPOLYLINE
  5
10B
330
1F
100
AcDbEntity
  8
0
100
AcDbPolyline
 90
        5
 70
     0
 43
0.0
 10
6085.296131795156
 20
10610.81726693032
 10
6135.296131795156
 20
10610.81726693032
 10
6135.296131795156
 20
10560.81726693032
 10
6085.296131795156
 20
10560.81726693032
 10
6085.296131795156
 20
10610.81726693032
  0
LWPOLYLINE
  5
10C
330
1F
100
AcDbEntity
  8
0
100
AcDbPolyline
 90
        6
 70
     0
 43
0.0
 10
5785.296131795156
 20
10876.67771755772
 10
5785.296131795156
 20
10700.81726693032
 10
5750.296131795156
 20
10700.81726693032
 10
5750.296131795156
 20
10610.81726693032
 10
5785.296131795156
 20
10610.81726693032
 10
5785.296131795156
 20
10560.81726693032
  0
LWPOLYLINE
  5
10D
330
1F
100
AcDbEntity
  8
0
100
AcDbPolyline
 90
        5
 70
     0
 43
0.0
 10
6190.296131795156
 20
10680.81726693032
 10
6240.296131795156
 20
10680.81726693032
 10
6240.296131795156
 20
10630.81726693032
 10
6190.296131795156
 20
10630.81726693032
 10
6190.296131795156
 20
10680.81726693032
  0
LWPOLYLINE
  5
10E
330
1F
100
AcDbEntity
  8
0
100
AcDbPolyline
 90
        5
 70
     0
 43
0.0
 10
6260.296131795156
 20
10680.81726693032
 10
6310.296131795156
 20
10680.81726693032
 10
6310.296131795156
 20
10630.81726693032
 10
6260.296131795156
 20
10630.81726693032
 10
6260.296131795156
 20
10680.81726693032
  0
LWPOLYLINE
  5
10F
330
1F
100
AcDbEntity
  8
0
100
AcDbPolyline
 90
        5
 70
     0
 43
0.0
 10
6330.296131795156
 20
10680.81726693032
 10
6380.296131795156
 20
10680.81726693032
 10
6380.296131795156
 20
10630.81726693032
 10
6330.296131795156
 20
10630.81726693032
 10
6330.296131795156
 20
10680.81726693032
  0
LWPOLYLINE
  5
110
330
1F
100
AcDbEntity
  8
0
100
AcDbPolyline
 90
        5
 70
     0
 43
0.0
 10
6155.296131795156
 20
10750.81726693032
 10
6205.296131795156
 20
10750.81726693032
 10
6205.296131795156
 20
10700.81726693032
 10
6155.296131795156
 20
10700.81726693032
 10
6155.296131795156
 20
10750.81726693032
  0
LWPOLYLINE
  5
111
330
1F
100
AcDbEntity
  8
0
100
AcDbPolyline
 90
        5
 70
     0
 43
0.0
 10
6225.296131795156
 20
10750.81726693032
 10
6275.296131795156
 20
10750.81726693032
 10
6275.296131795156
 20
10700.81726693032
 10
6225.296131795156
 20
10700.81726693032
 10
6225.296131795156
 20
10750.81726693032
  0
LWPOLYLINE
  5
112
330
1F
100
AcDbEntity
  8
0
100
AcDbPolyline
 90
        5
 70
     0
 43
0.0
 10
6295.296131795156
 20
10750.81726693032
 10
6345.296131795156
 20
10750.81726693032
 10
6345.296131795156
 20
10700.81726693032
 10
6295.296131795156
 20
10700.81726693032
 10
6295.296131795156
 20
10750.81726693032
  0
LWPOLYLINE
  5
113
330
1F
100
AcDbEntity
  8
0
100
AcDbPolyline
 90
        5
 70
     0
 43
0.0
 10
6155.296131795156
 20
10610.81726693032
 10
6205.296131795156
 20
10610.81726693032
 10
6205.296131795156
 20
10560.81726693032
 10
6155.296131795156
 20
10560.81726693032
 10
6155.296131795156
 20
10610.81726693032
  0
LWPOLYLINE
  5
114
330
1F
100
AcDbEntity
  8
0
100
AcDbPolyline
 90
        5
 70
     0
 43
0.0
 10
6225.296131795156
 20
10610.81726693032
 10
6275.296131795156
 20
10610.81726693032
 10
6275.296131795156
 20
10560.81726693032
 10
6225.296131795156
 20
10560.81726693032
 10
6225.296131795156
 20
10610.81726693032
  0
LWPOLYLINE
  5
115
330
1F
100
AcDbEntity
  8
0
100
AcDbPolyline
 90
        5
 70
     0
 43
0.0
 10
6295.296131795156
 20
10610.81726693032
 10
6345.296131795156
 20
10610.81726693032
 10
6345.296131795156
 20
10560.81726693032
 10
6295.296131795156
 20
10560.81726693032
 10
6295.296131795156
 20
10610.81726693032
  0
LWPOLYLINE
  5
116
330
1F
100
AcDbEntity
  8
0
100
AcDbPolyline
 90
        6
 70
     0
 43
0.0
 10
6365.296131795156
 20
10874.85874058348
 10
6365.296131795156
 20
10700.81726693032
 10
6400.296131795156
 20
10700.81726693032
 10
6400.296131795156
 20
10610.81726693032
 10
6365.296131795156
 20
10610.81726693032
 10
6365.296131795156
 20
10560.81726693032
  0
LWPOLYLINE
  5
117
330
1F
100
AcDbEntity
  8
0
100
AcDbPolyline
 90
        2
 70
     0
 43
0.0
 10
6365.192346451688
 20
10500.66375944672
 10
6365.296131795156
 20
10560.81726693032
  0
LWPOLYLINE
  5
118
330
1F
100
AcDbEntity
  8
0
100
AcDbPolyline
 90
        2
 70
     0
 43
0.0
 10
5785.296131795156
 20
10350.66375944672
 10
6365.192346451688
 20
10350.66375944672
  0
ENDSEC
  0
SECTION
  2
OBJECTS
  0
DICTIONARY
  5
C
330
0
100
AcDbDictionary
281
     1
  3
ACAD_GROUP
350
D
  3
ACAD_IMAGE_VARS
350
6A
  3
ACAD_LAYOUT
350
1A
  3
ACAD_MLINESTYLE
350
17
  3
ACAD_PLOTSETTINGS
350
19
  3
ACAD_PLOTSTYLENAME
350
E
  3
ACAD_SCALELIST
350
40
  3
AcDbVariableDictionary
350
3D
  3
APPDATA
350
71
  0
DICTIONARY
  5
D
102
{ACAD_REACTORS
330
C
102
}
330
C
100
AcDbDictionary
281
     1
  0
RASTERVARIABLES
  5
6A
102
{ACAD_REACTORS
330
C
102
}
330
C
100
AcDbRasterVariables
 90
        0
 70
     1
 71
     1
 72
     1
  0
DICTIONARY
  5
1A
102
{ACAD_REACTORS
330
C
102
}
330
C
100
AcDbDictionary
281
     1
  3
Model
350
22
  3
Sheet1
350
1E
  3
Sheet2
350
26
  0
DICTIONARY
  5
17
102
{ACAD_REACTORS
330
C
102
}
330
C
100
AcDbDictionary
281
     1
  3
Standard
350
18
  0
DICTIONARY
  5
19
102
{ACAD_REACTORS
330
C
102
}
330
C
100
AcDbDictionary
281
     1
  0
ACDBDICTIONARYWDFLT
  5
E
102
{ACAD_REACTORS
330
C
102
}
330
C
100
AcDbDictionary
281
     1
  3
Normal
350
F
100
AcDbDictionaryWithDefault
340
F
  0
DICTIONARY
  5
40
102
{ACAD_REACTORS
330
C
102
}
330
C
100
AcDbDictionary
281
     1
  3
A0
350
41
  3
A1
350
42
  3
A2
350
43
  3
A3
350
44
  3
A4
350
45
  3
A5
350
46
  3
A6
350
47
  3
A7
350
48
  3
A8
350
49
  3
A9
350
4A
  3
B0
350
4B
  3
B1
350
4C
  3
B2
350
4D
  3
B3
350
4E
  3
B4
350
4F
  3
B5
350
50
  3
B6
350
51
  3
B7
350
52
  3
B8
350
53
  3
B9
350
54
  3
C0
350
55
  3
C1
350
56
  3
C2
350
57
  3
C3
350
58
  3
C4
350
59
  3
C5
350
5A
  3
C6
350
5B
  3
C7
350
5C
  3
C8
350
5D
  3
C9
350
5E
  3
D0
350
5F
  3
D1
350
60
  3
D2
350
61
  0
DICTIONARY
  5
3D
102
{ACAD_REACTORS
330
C
102
}
330
C
100
AcDbDictionary
281
     1
  3
CANNOSCALE
350
11B
  3
XCLIPFRAME
350
70
  3
CANNOSCALE
350
11A
  0
DICTIONARY
  5
71
102
{ACAD_REACTORS
330
C
102
}
330
C
100
AcDbDictionary
281
     1
  0
LAYOUT
  5
22
102
{ACAD_REACTORS
330
1A
102
}
330
1A
100
AcDbPlotSettings
  1

  2
none_device
  4
ISO_A3_(420.00_x_297.00_MM)
  6

 40
7.5
 41
20.0
 42
7.5
 43
20.0
 44
420.0
 45
297.0
 46
20.78282828282826
 47
0.0
 48
0.0
 49
0.0
140
0.0
141
0.0
142
1.0
143
1.155642023346303
 70
  1204
 72
     1
 73
     0
 74
     1
  7
monochrome.ctb
 75
     0
147
0.8653198653198654
148
-134.1869158878504
149
0.0
100
AcDbLayout
  1
Model
 70
     1
 71
     0
 10
0.0
 20
0.0
 11
420.0
 21
297.0
 12
0.0
 22
0.0
 32
0.0
 14
1.000000000000000E+20
 24
1.000000000000000E+20
 34
1.000000000000000E+20
 15
-1.000000000000000E+20
 25
-1.000000000000000E+20
 35
-1.000000000000000E+20
146
0.0
 13
0.0
 23
0.0
 33
0.0
 16
1.0
 26
0.0
 36
0.0
 17
0.0
 27
1.0
 37
0.0
 76
     0
330
1F
331
29
  0
LAYOUT
  5
1E
102
{ACAD_REACTORS
330
1A
102
}
330
1A
100
AcDbPlotSettings
  1

  2
none_device
  4

  6

 40
0.0
 41
0.0
 42
0.0
 43
0.0
 44
0.0
 45
0.0
 46
0.0
 47
0.0
 48
0.0
 49
0.0
140
0.0
141
0.0
142
1.0
143
1.0
 70
   688
 72
     0
 73
     0
 74
     5
  7

 75
    16
147
1.0
148
0.0
149
0.0
100
AcDbLayout
  1
Sheet1
 70
     1
 71
     1
 10
0.0
 20
0.0
 11
420.0
 21
297.0
 12
0.0
 22
0.0
 32
0.0
 14
1.000000000000000E+20
 24
1.000000000000000E+20
 34
1.000000000000000E+20
 15
-1.000000000000000E+20
 25
-1.000000000000000E+20
 35
-1.000000000000000E+20
146
0.0
 13
0.0
 23
0.0
 33
0.0
 16
1.0
 26
0.0
 36
0.0
 17
0.0
 27
1.0
 37
0.0
 76
     0
330
1B
  0
LAYOUT
  5
26
102
{ACAD_REACTORS
330
1A
102
}
330
1A
100
AcDbPlotSettings
  1

  2
none_device
  4

  6

 40
0.0
 41
0.0
 42
0.0
 43
0.0
 44
0.0
 45
0.0
 46
0.0
 47
0.0
 48
0.0
 49
0.0
140
0.0
141
0.0
142
1.0
143
1.0
 70
   688
 72
     0
 73
     0
 74
     5
  7

 75
    16
147
1.0
148
0.0
149
0.0
100
AcDbLayout
  1
Sheet2
 70
     1
 71
     2
 10
0.0
 20
0.0
 11
0.0
 21
0.0
 12
0.0
 22
0.0
 32
0.0
 14
0.0
 24
0.0
 34
0.0
 15
0.0
 25
0.0
 35
0.0
146
0.0
 13
0.0
 23
0.0
 33
0.0
 16
1.0
 26
0.0
 36
0.0
 17
0.0
 27
1.0
 37
0.0
 76
     0
330
23
  0
MLINESTYLE
  5
18
102
{ACAD_REACTORS
330
17
102
}
330
17
100
AcDbMlineStyle
  2
Standard
 70
     0
  3

 62
   256
 51
90.0
 52
90.0
 71
     2
 49
0.5
 62
   256
  6
BYLAYER
 49
-0.5
 62
   256
  6
BYLAYER
  0
ACDBPLACEHOLDER
  5
F
102
{ACAD_REACTORS
330
E
102
}
330
E
  0
SCALE
  5
41
102
{ACAD_REACTORS
330
40
102
}
330
40
100
AcDbScale
 70
     0
300
1:1
140
1.0
141
1.0
290
     1
  0
SCALE
  5
42
102
{ACAD_REACTORS
330
40
102
}
330
40
100
AcDbScale
 70
     0
300
1:2
140
1.0
141
2.0
290
     0
  0
SCALE
  5
43
102
{ACAD_REACTORS
330
40
102
}
330
40
100
AcDbScale
 70
     0
300
1:4
140
1.0
141
4.0
290
     0
  0
SCALE
  5
44
102
{ACAD_REACTORS
330
40
102
}
330
40
100
AcDbScale
 70
     0
300
1:5
140
1.0
141
5.0
290
     0
  0
SCALE
  5
45
102
{ACAD_REACTORS
330
40
102
}
330
40
100
AcDbScale
 70
     0
300
1:8
140
1.0
141
8.0
290
     0
  0
SCALE
  5
46
102
{ACAD_REACTORS
330
40
102
}
330
40
100
AcDbScale
 70
     0
300
1:10
140
1.0
141
10.0
290
     0
  0
SCALE
  5
47
102
{ACAD_REACTORS
330
40
102
}
330
40
100
AcDbScale
 70
     0
300
1:16
140
1.0
141
16.0
290
     0
  0
SCALE
  5
48
102
{ACAD_REACTORS
330
40
102
}
330
40
100
AcDbScale
 70
     0
300
1:20
140
1.0
141
20.0
290
     0
  0
SCALE
  5
49
102
{ACAD_REACTORS
330
40
102
}
330
40
100
AcDbScale
 70
     0
300
1:30
140
1.0
141
30.0
290
     0
  0
SCALE
  5
4A
102
{ACAD_REACTORS
330
40
102
}
330
40
100
AcDbScale
 70
     0
300
1:40
140
1.0
141
40.0
290
     0
  0
SCALE
  5
4B
102
{ACAD_REACTORS
330
40
102
}
330
40
100
AcDbScale
 70
     0
300
1:50
140
1.0
141
50.0
290
     0
  0
SCALE
  5
4C
102
{ACAD_REACTORS
330
40
102
}
330
40
100
AcDbScale
 70
     0
300
1:100
140
1.0
141
100.0
290
     0
  0
SCALE
  5
4D
102
{ACAD_REACTORS
330
40
102
}
330
40
100
AcDbScale
 70
     0
300
2:1
140
2.0
141
1.0
290
     0
  0
SCALE
  5
4E
102
{ACAD_REACTORS
330
40
102
}
330
40
100
AcDbScale
 70
     0
300
4:1
140
4.0
141
1.0
290
     0
  0
SCALE
  5
4F
102
{ACAD_REACTORS
330
40
102
}
330
40
100
AcDbScale
 70
     0
300
8:1
140
8.0
141
1.0
290
     0
  0
SCALE
  5
50
102
{ACAD_REACTORS
330
40
102
}
330
40
100
AcDbScale
 70
     0
300
10:1
140
10.0
141
1.0
290
     0
  0
SCALE
  5
51
102
{ACAD_REACTORS
330
40
102
}
330
40
100
AcDbScale
 70
     0
300
100:1
140
100.0
141
1.0
290
     0
  0
SCALE
  5
52
102
{ACAD_REACTORS
330
40
102
}
330
40
100
AcDbScale
 70
     0
300
1/128" = 1'-0"
140
0.0078125
141
12.0
290
     0
  0
SCALE
  5
53
102
{ACAD_REACTORS
330
40
102
}
330
40
100
AcDbScale
 70
     0
300
1/64" = 1'-0"
140
0.015625
141
12.0
290
     0
  0
SCALE
  5
54
102
{ACAD_REACTORS
330
40
102
}
330
40
100
AcDbScale
 70
     0
300
1/32" = 1'-0"
140
0.03125
141
12.0
290
     0
  0
SCALE
  5
55
102
{ACAD_REACTORS
330
40
102
}
330
40
100
AcDbScale
 70
     0
300
1/16" = 1'-0"
140
0.0625
141
12.0
290
     0
  0
SCALE
  5
56
102
{ACAD_REACTORS
330
40
102
}
330
40
100
AcDbScale
 70
     0
300
3/32" = 1'-0"
140
0.09375
141
12.0
290
     0
  0
SCALE
  5
57
102
{ACAD_REACTORS
330
40
102
}
330
40
100
AcDbScale
 70
     0
300
1/8" = 1'-0"
140
0.125
141
12.0
290
     0
  0
SCALE
  5
58
102
{ACAD_REACTORS
330
40
102
}
330
40
100
AcDbScale
 70
     0
300
3/16" = 1'-0"
140
0.1875
141
12.0
290
     0
  0
SCALE
  5
59
102
{ACAD_REACTORS
330
40
102
}
330
40
100
AcDbScale
 70
     0
300
1/4" = 1'-0"
140
0.25
141
12.0
290
     0
  0
SCALE
  5
5A
102
{ACAD_REACTORS
330
40
102
}
330
40
100
AcDbScale
 70
     0
300
3/8" = 1'-0"
140
0.375
141
12.0
290
     0
  0
SCALE
  5
5B
102
{ACAD_REACTORS
330
40
102
}
330
40
100
AcDbScale
 70
     0
300
1/2" = 1'-0"
140
0.5
141
12.0
290
     0
  0
SCALE
  5
5C
102
{ACAD_REACTORS
330
40
102
}
330
40
100
AcDbScale
 70
     0
300
3/4" = 1'-0"
140
0.75
141
12.0
290
     0
  0
SCALE
  5
5D
102
{ACAD_REACTORS
330
40
102
}
330
40
100
AcDbScale
 70
     0
300
1" = 1'-0"
140
1.0
141
12.0
290
     0
  0
SCALE
  5
5E
102
{ACAD_REACTORS
330
40
102
}
330
40
100
AcDbScale
 70
     0
300
1-1/2" = 1'-0"
140
1.5
141
12.0
290
     0
  0
SCALE
  5
5F
102
{ACAD_REACTORS
330
40
102
}
330
40
100
AcDbScale
 70
     0
300
3" = 1'-0"
140
3.0
141
12.0
290
     0
  0
SCALE
  5
60
102
{ACAD_REACTORS
330
40
102
}
330
40
100
AcDbScale
 70
     0
300
6" = 1'-0"
140
6.0
141
12.0
290
     0
  0
SCALE
  5
61
102
{ACAD_REACTORS
330
40
102
}
330
40
100
AcDbScale
 70
     0
300
1'-0" = 1'-0"
140
12.0
141
12.0
290
     0
  0
DICTIONARYVAR
  5
11B
102
{ACAD_REACTORS
330
3D
102
}
330
3D
100
DictionaryVariables
280
     0
  1
1:1
  0
DICTIONARYVAR
  5
70
102
{ACAD_REACTORS
330
3D
102
}
330
3D
100
DictionaryVariables
280
     0
  1
0
  0
DICTIONARYVAR
  5
11A
102
{ACAD_REACTORS
330
3D
102
}
330
3D
100
DictionaryVariables
280
     0
  1
1:1
  0
ENDSEC
  0
EOF
