  0
SECTION
  2
HEADER
  9
$ACADVER
  1
AC1015
  9
$ACADMAINTVER
 70
     6
  9
$DWGCODEPAGE
  3
ANSI_1251
  9
$INSBASE
 10
0.0
 20
0.0
 30
0.0
  9
$EXTMIN
 10
1.000000000000000E+20
 20
1.000000000000000E+20
 30
1.000000000000000E+20
  9
$EXTMAX
 10
-1.000000000000000E+20
 20
-1.000000000000000E+20
 30
-1.000000000000000E+20
  9
$LIMMIN
 10
0.0
 20
0.0
  9
$LIMMAX
 10
420.0
 20
297.0
  9
$ORTHOMODE
 70
     0
  9
$REGENMODE
 70
     1
  9
$FILLMODE
 70
     1
  9
$QTEXTMODE
 70
     0
  9
$MIRRTEXT
 70
     0
  9
$LTSCALE
 40
1.0
  9
$ATTMODE
 70
     1
  9
$TEXTSIZE
 40
2.5
  9
$TRACEWID
 40
1.0
  9
$TEXTSTYLE
  7
Standard
  9
$CLAYER
  8
0
  9
$CELTYPE
  6
ByLayer
  9
$CECOLOR
 62
   256
  9
$CELTSCALE
 40
1.0
  9
$DISPSILH
 70
     0
  9
$DIMSCALE
 40
1.0
  9
$DIMASZ
 40
2.5
  9
$DIMEXO
 40
0.625
  9
$DIMDLI
 40
3.75
  9
$DIMRND
 40
0.0
  9
$DIMDLE
 40
0.0
  9
$DIMEXE
 40
1.25
  9
$DIMTP
 40
0.0
  9
$DIMTM
 40
0.0
  9
$DIMTXT
 40
2.5
  9
$DIMCEN
 40
2.5
  9
$DIMTSZ
 40
0.0
  9
$DIMTOL
 70
     0
  9
$DIMLIM
 70
     0
  9
$DIMTIH
 70
     0
  9
$DIMTOH
 70
     0
  9
$DIMSE1
 70
     0
  9
$DIMSE2
 70
     0
  9
$DIMTAD
 70
     1
  9
$DIMZIN
 70
     8
  9
$DIMBLK
  1

  9
$DIMASO
 70
     1
  9
$DIMSHO
 70
     1
  9
$DIMPOST
  1

  9
$DIMAPOST
  1

  9
$DIMALT
 70
     0
  9
$DIMALTD
 70
     3
  9
$DIMALTF
 40
0.03937007874016
  9
$DIMLFAC
 40
1.0
  9
$DIMTOFL
 70
     1
  9
$DIMTVP
 40
0.0
  9
$DIMTIX
 70
     0
  9
$DIMSOXD
 70
     0
  9
$DIMSAH
 70
     0
  9
$DIMBLK1
  1

  9
$DIMBLK2
  1

  9
$DIMSTYLE
  2
ISO-25
  9
$DIMCLRD
 70
     0
  9
$DIMCLRE
 70
     0
  9
$DIMCLRT
 70
     0
  9
$DIMTFAC
 40
1.0
  9
$DIMGAP
 40
0.625
  9
$DIMJUST
 70
     0
  9
$DIMSD1
 70
     0
  9
$DIMSD2
 70
     0
  9
$DIMTOLJ
 70
     0
  9
$DIMTZIN
 70
     8
  9
$DIMALTZ
 70
     0
  9
$DIMALTTZ
 70
     0
  9
$DIMUPT
 70
     0
  9
$DIMDEC
 70
     2
  9
$DIMTDEC
 70
     2
  9
$DIMALTU
 70
     2
  9
$DIMALTTD
 70
     3
  9
$DIMTXSTY
  7
Standard
  9
$DIMAUNIT
 70
     0
  9
$DIMADEC
 70
     0
  9
$DIMALTRND
 40
0.0
  9
$DIMAZIN
 70
     0
  9
$DIMDSEP
 70
    44
  9
$DIMATFIT
 70
     3
  9
$DIMFRAC
 70
     0
  9
$DIMLDRBLK
  1

  9
$DIMLUNIT
 70
     2
  9
$DIMLWD
 70
    -2
  9
$DIMLWE
 70
    -2
  9
$DIMTMOVE
 70
     0
  9
$LUNITS
 70
     2
  9
$LUPREC
 70
     3
  9
$SKETCHINC
 40
1.0
  9
$FILLETRAD
 40
10.0
  9
$AUNITS
 70
     0
  9
$AUPREC
 70
     0
  9
$MENU
  1
.
  9
$ELEVATION
 40
0.0
  9
$PELEVATION
 40
0.0
  9
$THICKNESS
 40
0.0
  9
$LIMCHECK
 70
     0
  9
$CHAMFERA
 40
10.0
  9
$CHAMFERB
 40
10.0
  9
$CHAMFERC
 40
20.0
  9
$CHAMFERD
 40
0.0
  9
$SKPOLY
 70
     0
  9
$TDCREATE
 40
2455022.637359514
  9
$TDUCREATE
 40
2455022.637359514
  9
$TDUPDATE
 40
2456247.686013391
  9
$TDUUPDATE
 40
2456247.686013391
  9
$TDINDWG
 40
0.0000000116
  9
$TDUSRTIMER
 40
2456247.685592523
  9
$USRTIMER
 70
     1
  9
$ANGBASE
 50
0.0
  9
$ANGDIR
 70
     0
  9
$PDMODE
 70
     0
  9
$PDSIZE
 40
0.0
  9
$PLINEWID
 40
0.0
  9
$SPLFRAME
 70
     0
  9
$SPLINETYPE
 70
     6
  9
$SPLINESEGS
 70
     8
  9
$HANDSEED
  5
1E2
  9
$SURFTAB1
 70
     6
  9
$SURFTAB2
 70
     6
  9
$SURFTYPE
 70
     6
  9
$SURFU
 70
     6
  9
$SURFV
 70
     6
  9
$UCSBASE
  2

  9
$UCSNAME
  2

  9
$UCSORG
 10
0.0
 20
0.0
 30
0.0
  9
$UCSXDIR
 10
1.0
 20
0.0
 30
0.0
  9
$UCSYDIR
 10
0.0
 20
1.0
 30
0.0
  9
$UCSORTHOREF
  2

  9
$UCSORTHOVIEW
 70
     0
  9
$UCSORGTOP
 10
0.0
 20
0.0
 30
0.0
  9
$UCSORGBOTTOM
 10
0.0
 20
0.0
 30
0.0
  9
$UCSORGLEFT
 10
0.0
 20
0.0
 30
0.0
  9
$UCSORGRIGHT
 10
0.0
 20
0.0
 30
0.0
  9
$UCSORGFRONT
 10
0.0
 20
0.0
 30
0.0
  9
$UCSORGBACK
 10
0.0
 20
0.0
 30
0.0
  9
$PUCSBASE
  2

  9
$PUCSNAME
  2

  9
$PUCSORG
 10
0.0
 20
0.0
 30
0.0
  9
$PUCSXDIR
 10
1.0
 20
0.0
 30
0.0
  9
$PUCSYDIR
 10
0.0
 20
1.0
 30
0.0
  9
$PUCSORTHOREF
  2

  9
$PUCSORTHOVIEW
 70
     0
  9
$PUCSORGTOP
 10
0.0
 20
0.0
 30
0.0
  9
$PUCSORGBOTTOM
 10
0.0
 20
0.0
 30
0.0
  9
$PUCSORGLEFT
 10
0.0
 20
0.0
 30
0.0
  9
$PUCSORGRIGHT
 10
0.0
 20
0.0
 30
0.0
  9
$PUCSORGFRONT
 10
0.0
 20
0.0
 30
0.0
  9
$PUCSORGBACK
 10
0.0
 20
0.0
 30
0.0
  9
$USERI1
 70
     0
  9
$USERI2
 70
     0
  9
$USERI3
 70
     0
  9
$USERI4
 70
     0
  9
$USERI5
 70
     0
  9
$USERR1
 40
0.0
  9
$USERR2
 40
0.0
  9
$USERR3
 40
0.0
  9
$USERR4
 40
0.0
  9
$USERR5
 40
0.0
  9
$WORLDVIEW
 70
     1
  9
$SHADEDGE
 70
     3
  9
$SHADEDIF
 70
    70
  9
$TILEMODE
 70
     1
  9
$MAXACTVP
 70
    64
  9
$PINSBASE
 10
0.0
 20
0.0
 30
0.0
  9
$PLIMCHECK
 70
     0
  9
$PEXTMIN
 10
1.000000000000000E+20
 20
1.000000000000000E+20
 30
1.000000000000000E+20
  9
$PEXTMAX
 10
-1.000000000000000E+20
 20
-1.000000000000000E+20
 30
-1.000000000000000E+20
  9
$PLIMMIN
 10
0.0
 20
0.0
  9
$PLIMMAX
 10
420.0
 20
297.0
  9
$UNITMODE
 70
     0
  9
$VISRETAIN
 70
     1
  9
$PLINEGEN
 70
     0
  9
$PSLTSCALE
 70
     1
  9
$TREEDEPTH
 70
  3020
  9
$CMLSTYLE
  2
Standard
  9
$CMLJUST
 70
     0
  9
$CMLSCALE
 40
20.0
  9
$PROXYGRAPHICS
 70
     1
  9
$MEASUREMENT
 70
     1
  9
$CELWEIGHT
370
    -1
  9
$ENDCAPS
280
     0
  9
$JOINSTYLE
280
     0
  9
$LWDISPLAY
290
     0
  9
$INSUNITS
 70
     4
  9
$HYPERLINKBASE
  1

  9
$STYLESHEET
  1

  9
$XEDIT
290
     1
  9
$CEPSNTYPE
380
     0
  9
$PSTYLEMODE
290
     1
  9
$FINGERPRINTGUID
  2
{EC6BB858-51AA-46EC-B484-6C9CC7AB3E2E}
  9
$VERSIONGUID
  2
{FAEB1C32-E019-11D5-929B-00C0DF256EC4}
  9
$EXTNAMES
290
     1
  9
$PSVPSCALE
 40
0.0
  9
$OLESTARTUP
290
     0
  0
ENDSEC
  0
SECTION
  2
CLASSES
  0
CLASS
  1
ACDBDICTIONARYWDFLT
  2
AcDbDictionaryWithDefault
  3
ObjectDBX Classes
 90
        0
280
     0
281
     0
  0
CLASS
  1
VISUALSTYLE
  2
AcDbVisualStyle
  3
ObjectDBX Classes
 90
     4095
280
     0
281
     0
  0
CLASS
  1
TABLESTYLE
  2
AcDbTableStyle
  3
ObjectDBX Classes
 90
     4095
280
     0
281
     0
  0
CLASS
  1
DICTIONARYVAR
  2
AcDbDictionaryVar
  3
ObjectDBX Classes
 90
        0
280
     0
281
     0
  0
CLASS
  1
SCALE
  2
AcDbScale
  3
ObjectDBX Classes
 90
     1153
280
     0
281
     0
  0
CLASS
  1
CELLSTYLEMAP
  2
AcDbCellStyleMap
  3
ObjectDBX Classes
 90
     1152
280
     0
281
     0
  0
CLASS
  1
RASTERVARIABLES
  2
AcDbRasterVariables
  3
ISM
 90
        0
280
     0
281
     0
  0
CLASS
  1
MATERIAL
  2
AcDbMaterial
  3
ObjectDBX Classes
 90
     1153
280
     0
281
     0
  0
CLASS
  1
ACDBPLACEHOLDER
  2
AcDbPlaceHolder
  3
ObjectDBX Classes
 90
        0
280
     0
281
     0
  0
CLASS
  1
LAYOUT
  2
AcDbLayout
  3
ObjectDBX Classes
 90
        0
280
     0
281
     0
  0
ENDSEC
  0
SECTION
  2
TABLES
  0
TABLE
  2
VPORT
  5
8
330
0
100
AcDbSymbolTable
 70
     1
  0
VPORT
  5
29
330
8
100
AcDbSymbolTableRecord
100
AcDbViewportTableRecord
  2
*Active
 70
     0
 10
0.0
 20
0.0
 11
1.0
 21
1.0
 12
9054.849037879761
 22
8369.537536839562
 13
0.0
 23
0.0
 14
10.0
 24
10.0
 15
10.0
 25
10.0
 16
0.0
 26
0.0
 36
1.0
 17
-134.1869158878508
 27
0.0
 37
0.0
 40
33410.77414731331
 41
2.248421052631579
 42
50.0
 43
0.0
 44
0.0
 50
0.0
 51
0.0
 71
    16
 72
  1000
 73
     1
 74
     3
 75
     0
 76
     0
 77
     0
 78
     0
281
     0
 65
     1
110
0.0
120
0.0
130
0.0
111
1.0
121
0.0
131
0.0
112
0.0
122
1.0
132
0.0
 79
     0
146
0.0
  0
ENDTAB
  0
TABLE
  2
LTYPE
  5
5
330
0
100
AcDbSymbolTable
 70
     1
  0
LTYPE
  5
14
330
5
100
AcDbSymbolTableRecord
100
AcDbLinetypeTableRecord
  2
ByBlock
 70
     0
  3

 72
    65
 73
     0
 40
0.0
  0
LTYPE
  5
15
330
5
100
AcDbSymbolTableRecord
100
AcDbLinetypeTableRecord
  2
ByLayer
 70
     0
  3

 72
    65
 73
     0
 40
0.0
  0
LTYPE
  5
16
330
5
100
AcDbSymbolTableRecord
100
AcDbLinetypeTableRecord
  2
Continuous
 70
     0
  3
Solid line
 72
    65
 73
     0
 40
0.0
  0
ENDTAB
  0
TABLE
  2
LAYER
  5
2
330
0
100
AcDbSymbolTable
 70
     3
  0
LAYER
  5
10
330
2
100
AcDbSymbolTableRecord
100
AcDbLayerTableRecord
  2
0
 70
     0
 62
     7
  6
Continuous
370
    -3
390
F
  0
LAYER
  5
77
330
2
100
AcDbSymbolTableRecord
100
AcDbLayerTableRecord
  2
fluid
 70
     0
 62
     4
  6
Continuous
370
    -3
390
F
1001
AcAecLayerStandard
1000

1000

  0
LAYER
  5
8C
330
2
100
AcDbSymbolTableRecord
100
AcDbLayerTableRecord
  2
insets
 70
     0
 62
    30
  6
Continuous
370
    -3
390
F
1001
AcAecLayerStandard
1000

1000

  0
ENDTAB
  0
TABLE
  2
STYLE
  5
3
330
0
100
AcDbSymbolTable
 70
     1
  0
STYLE
  5
11
330
3
100
AcDbSymbolTableRecord
100
AcDbTextStyleTableRecord
  2
Standard
 70
     0
 40
0.0
 41
1.0
 50
0.0
 71
     0
 42
2.5
  3
txt
  4

  0
ENDTAB
  0
TABLE
  2
VIEW
  5
6
330
0
100
AcDbSymbolTable
 70
     0
  0
ENDTAB
  0
TABLE
  2
UCS
  5
7
330
0
100
AcDbSymbolTable
 70
     0
  0
ENDTAB
  0
TABLE
  2
APPID
  5
9
330
0
100
AcDbSymbolTable
 70
     2
  0
APPID
  5
12
330
9
100
AcDbSymbolTableRecord
100
AcDbRegAppTableRecord
  2
ACAD
 70
     0
  0
APPID
  5
79
330
9
100
AcDbSymbolTableRecord
100
AcDbRegAppTableRecord
  2
AcAecLayerStandard
 70
     0
  0
ENDTAB
  0
TABLE
  2
DIMSTYLE
  5
A
330
0
100
AcDbSymbolTable
 70
     1
100
AcDbDimStyleTable
  0
DIMSTYLE
105
27
330
A
100
AcDbSymbolTableRecord
100
AcDbDimStyleTableRecord
  2
ISO-25
 70
     0
 41
2.5
 42
0.625
 43
3.75
 44
1.25
 73
     0
 74
     0
 77
     1
 78
     8
140
2.5
141
2.5
143
0.03937007874016
147
0.625
171
     3
172
     1
178
     0
271
     2
272
     2
274
     3
278
    44
283
     0
284
     8
340
11
  0
ENDTAB
  0
TABLE
  2
BLOCK_RECORD
  5
1
330
0
100
AcDbSymbolTable
 70
     1
  0
BLOCK_RECORD
  5
1F
330
1
100
AcDbSymbolTableRecord
100
AcDbBlockTableRecord
  2
*Model_Space
340
22
  0
BLOCK_RECORD
  5
1B
330
1
100
AcDbSymbolTableRecord
100
AcDbBlockTableRecord
  2
*Paper_Space
340
1E
  0
BLOCK_RECORD
  5
23
330
1
100
AcDbSymbolTableRecord
100
AcDbBlockTableRecord
  2
*Paper_Space0
340
26
  0
ENDTAB
  0
ENDSEC
  0
SECTION
  2
BLOCKS
  0
BLOCK
  5
20
330
1F
100
AcDbEntity
  8
0
100
AcDbBlockBegin
  2
*Model_Space
 70
     0
 10
0.0
 20
0.0
 30
0.0
  3
*Model_Space
  1

  0
ENDBLK
  5
21
330
1F
100
AcDbEntity
  8
0
100
AcDbBlockEnd
  0
BLOCK
  5
1C
330
1B
100
AcDbEntity
 67
     1
  8
0
100
AcDbBlockBegin
  2
*Paper_Space
 70
     0
 10
0.0
 20
0.0
 30
0.0
  3
*Paper_Space
  1

  0
ENDBLK
  5
1D
330
1B
100
AcDbEntity
 67
     1
  8
0
100
AcDbBlockEnd
  0
BLOCK
  5
24
330
23
100
AcDbEntity
  8
0
100
AcDbBlockBegin
  2
*Paper_Space0
 70
     0
 10
0.0
 20
0.0
 30
0.0
  3
*Paper_Space0
  1

  0
ENDBLK
  5
25
330
23
100
AcDbEntity
  8
0
100
AcDbBlockEnd
  0
ENDSEC
  0
SECTION
  2
ENTITIES
  0
LWPOLYLINE
  5
119
330
1F
100
AcDbEntity
  8
0
100
AcDbPolyline
 90
        2
 70
     0
 43
0.0
 10
7113.262726975139
 20
7560.015152880005
 10
7613.262726975139
 20
7560.015152880005
  0
LWPOLYLINE
  5
11E
330
1F
100
AcDbEntity
  8
0
100
AcDbPolyline
 90
        2
 70
     0
 43
0.0
 10
6163.262726975139
 20
7560.015152880005
 10
5663.262726975139
 20
7560.015152880005
  0
LWPOLYLINE
  5
11F
330
1F
100
AcDbEntity
  8
0
100
AcDbPolyline
 90
        5
 70
     0
 43
0.0
 10
7613.262726975139
 20
7560.015152880005
 10
8509.709336381988
 20
7560.015152880005
 10
8716.816117568524
 20
7560.015152880005
 10
8863.262726975256
 20
7706.461762286737
 10
8863.262726975256
 20
7913.568543473273
  0
LWPOLYLINE
  5
120
330
1F
100
AcDbEntity
  8
0
100
AcDbPolyline
 90
        3
 70
     0
 43
0.0
 10
8031.712332225172
 20
11025.77035947891
 10
8178.158941631904
 20
10879.32375007217
 10
8178.158941631904
 20
10672.21696888564
  0
LWPOLYLINE
  5
121
330
1F
100
AcDbEntity
  8
0
100
AcDbPolyline
 90
        4
 70
     0
 43
0.0
 10
7601.816117568524
 20
10875.77035947891
 10
7824.605551038636
 20
10875.77035947891
 10
8028.158941631904
 20
10875.77035947891
 10
8028.158941631904
 20
10672.21696888564
  0
LWPOLYLINE
  5
122
330
1F
100
AcDbEntity
  8
0
100
AcDbPolyline
 90
        5
 70
     0
 43
0.0
 10
5663.262726975139
 20
7560.015152880005
 10
4766.816117568407
 20
7560.015152880005
 10
4559.709336381871
 20
7560.015152880005
 10
4413.262726975139
 20
7706.461762286737
 10
4413.262726975139
 20
7913.568543473273
  0
LWPOLYLINE
  5
123
330
1F
100
AcDbEntity
  8
0
100
AcDbPolyline
 90
        3
 70
     0
 43
0.0
 10
5244.709336381871
 20
11025.77035947891
 10
5098.262726975139
 20
10879.32375007217
 10
5098.262726975139
 20
10672.21696888564
  0
LWPOLYLINE
  5
124
330
1F
100
AcDbEntity
  8
0
100
AcDbPolyline
 90
        4
 70
     0
 43
0.0
 10
5674.346749812248
 20
10875.77035947891
 10
5451.816117568407
 20
10875.77035947891
 10
5248.262726975139
 20
10875.77035947891
 10
5248.262726975139
 20
10672.21696888564
  0
TEXT
  5
125
330
1F
100
AcDbEntity
  8
0
100
AcDbText
 10
1656.785898008384
 20
1487.813336874315
 30
0.0
 40
734.2803532077291
  1
50µm
100
AcDbText
  0
LWPOLYLINE
  5
127
330
1F
100
AcDbEntity
  8
0
100
AcDbPolyline
 90
        3
 70
     0
 43
0.0
 10
6613.262726975139
 20
7645.015152880005
 10
6528.262726975139
 20
7645.015152880063
 10
6163.262726975139
 20
7560.015152880005
  0
LWPOLYLINE
  5
128
330
1F
100
AcDbEntity
  8
0
100
AcDbPolyline
 90
        3
 70
     0
 43
0.0
 10
6663.262726975139
 20
7645.015152880005
 10
6748.262726975256
 20
7645.015152880063
 10
7113.262726975139
 20
7560.015152880005
  0
LWPOLYLINE
  5
129
330
1F
100
AcDbEntity
  8
0
100
AcDbPolyline
 90
       18
 70
     0
 43
0.0
 10
8031.816117568524
 20
11399.96534061567
 10
8134.66059236275
 20
11491.81186144259
 10
8209.181725450908
 20
11620.88625018882
 10
8242.346749719349
 20
11766.19171557874
 10
8231.208807219635
 20
11914.81722935011
 10
8176.757553020958
 20
12053.55676237193
 10
8083.831220014254
 20
12170.08269828687
 10
7960.686720687547
 20
12254.04119632313
 10
7818.265984216821
 20
12297.97217548454
 10
7669.223718040623
 20
12297.97217548454
 10
7526.802981570014
 20
12254.04119632313
 10
7403.658482243307
 20
12170.08269828687
 10
7310.732149236486
 20
12053.55676237193
 10
7256.280895037809
 20
11914.81722935011
 10
7245.142952538212
 20
11766.19171557874
 10
7278.307976806653
 20
11620.88625018882
 10
7352.829109894694
 20
11491.81186144259
 10
7451.816117568524
 20
11401.7843175899
  0
LWPOLYLINE
  5
12A
330
1F
100
AcDbEntity
  8
0
100
AcDbPolyline
 90
       20
 70
     0
 43
0.0
 10
7649.054972529877
 20
11664.67221864995
 10
7519.053116685245
 20
11473.99451688096
 10
7431.89536286064
 20
11554.86509414153
 10
7372.446804597625
 20
11657.83301748977
 10
7345.989707183558
 20
11773.74913506892
 10
7354.87489982869
 20
11892.31379114262
 10
7398.31289417448
 20
12002.99199570618
 10
7472.444033798878
 20
12095.94950458089
 10
7570.681441627094
 20
12162.92663516595
 10
7684.296292865765
 20
12197.97217548454
 10
7803.193409391795
 20
12197.97217548454
 10
7916.808260630467
 20
12162.92663516595
 10
8015.045668458566
 20
12095.94950458089
 10
8089.176808082964
 20
12002.99199570618
 10
8132.614802428754
 20
11892.31379114262
 10
8141.499995074002
 20
11773.74913506892
 10
8115.042897659936
 20
11657.83301748977
 10
8055.594339396805
 20
11554.86509414153
 10
7968.436585572315
 20
11473.99451688096
 10
7838.434729727567
 20
11664.67221864995
  0
LWPOLYLINE
  5
12C
330
1F
100
AcDbEntity
  8
0
100
AcDbPolyline
 90
       14
 70
     0
 43
0.0
 10
7838.526077000191
 20
11873.54992346298
 10
7838.959731137846
 20
11982.37548794872
 10
7836.832788056228
 20
12010.7575709292
 10
7826.434573268984
 20
12037.25179011795
 10
7808.689013791853
 20
12059.50401787211
 10
7785.172880459111
 20
12075.53704610335
 10
7757.975684916601
 20
12083.92626989372
 10
7729.51401734096
 20
12083.92626989372
 10
7702.316821798449
 20
12075.5370461034
 10
7678.800688465708
 20
12059.50401787211
 10
7661.055128988461
 20
12037.25179011795
 10
7650.656914201216
 20
12010.7575709292
 10
7648.529971119715
 20
11982.37548794872
 10
7649.054972529877
 20
11850.62631305902
  0
LWPOLYLINE
  5
12D
330
1F
100
AcDbEntity
  8
0
100
AcDbPolyline
 90
        2
 70
     0
 43
0.0
 10
7838.434729727567
 20
11664.67221864995
 10
7838.526077000191
 20
11873.54992346298
  0
LWPOLYLINE
  5
12E
330
1F
100
AcDbEntity
  8
0
100
AcDbPolyline
 90
        2
 70
     0
 43
0.0
 10
7649.054972529877
 20
11664.67221864995
 10
7649.054972529877
 20
11850.62631305902
  0
LWPOLYLINE
  5
12F
330
1F
100
AcDbEntity
  8
0
100
AcDbPolyline
 90
        2
 70
     0
 43
0.0
 10
7451.816117568524
 20
11025.77035947891
 10
7451.816117568524
 20
11085.9238669625
  0
LWPOLYLINE
  5
130
330
1F
100
AcDbEntity
  8
0
100
AcDbPolyline
 90
        5
 70
     0
 43
0.0
 10
7436.816117568524
 20
11205.9238669625
 10
7486.816117568524
 20
11205.9238669625
 10
7486.816117568524
 20
11155.9238669625
 10
7436.816117568524
 20
11155.9238669625
 10
7436.816117568524
 20
11205.9238669625
  0
LWPOLYLINE
  5
131
330
1F
100
AcDbEntity
  8
0
100
AcDbPolyline
 90
        5
 70
     0
 43
0.0
 10
7506.816117568524
 20
11205.9238669625
 10
7556.816117568524
 20
11205.9238669625
 10
7556.816117568524
 20
11155.9238669625
 10
7506.816117568524
 20
11155.9238669625
 10
7506.816117568524
 20
11205.9238669625
  0
LWPOLYLINE
  5
132
330
1F
100
AcDbEntity
  8
0
100
AcDbPolyline
 90
        5
 70
     0
 43
0.0
 10
7576.816117568524
 20
11205.9238669625
 10
7626.816117568524
 20
11205.9238669625
 10
7626.816117568524
 20
11155.9238669625
 10
7576.816117568524
 20
11155.9238669625
 10
7576.816117568524
 20
11205.9238669625
  0
LWPOLYLINE
  5
133
330
1F
100
AcDbEntity
  8
0
100
AcDbPolyline
 90
        5
 70
     0
 43
0.0
 10
7646.816117568524
 20
11205.9238669625
 10
7696.816117568524
 20
11205.9238669625
 10
7696.816117568524
 20
11155.9238669625
 10
7646.816117568524
 20
11155.9238669625
 10
7646.816117568524
 20
11205.9238669625
  0
LWPOLYLINE
  5
134
330
1F
100
AcDbEntity
  8
0
100
AcDbPolyline
 90
        5
 70
     0
 43
0.0
 10
7716.816117568524
 20
11205.9238669625
 10
7766.816117568524
 20
11205.9238669625
 10
7766.816117568524
 20
11155.9238669625
 10
7716.816117568524
 20
11155.9238669625
 10
7716.816117568524
 20
11205.9238669625
  0
LWPOLYLINE
  5
135
330
1F
100
AcDbEntity
  8
0
100
AcDbPolyline
 90
        5
 70
     0
 43
0.0
 10
7786.816117568524
 20
11205.9238669625
 10
7836.816117568524
 20
11205.9238669625
 10
7836.816117568524
 20
11155.9238669625
 10
7786.816117568524
 20
11155.9238669625
 10
7786.816117568524
 20
11205.9238669625
  0
LWPOLYLINE
  5
136
330
1F
100
AcDbEntity
  8
0
100
AcDbPolyline
 90
        5
 70
     0
 43
0.0
 10
7471.816117568524
 20
11275.9238669625
 10
7521.816117568524
 20
11275.9238669625
 10
7521.816117568524
 20
11225.9238669625
 10
7471.816117568524
 20
11225.9238669625
 10
7471.816117568524
 20
11275.9238669625
  0
LWPOLYLINE
  5
137
330
1F
100
AcDbEntity
  8
0
100
AcDbPolyline
 90
        5
 70
     0
 43
0.0
 10
7541.816117568524
 20
11275.9238669625
 10
7591.816117568524
 20
11275.9238669625
 10
7591.816117568524
 20
11225.9238669625
 10
7541.816117568524
 20
11225.9238669625
 10
7541.816117568524
 20
11275.9238669625
  0
LWPOLYLINE
  5
138
330
1F
100
AcDbEntity
  8
0
100
AcDbPolyline
 90
        5
 70
     0
 43
0.0
 10
7611.816117568524
 20
11275.9238669625
 10
7661.816117568524
 20
11275.9238669625
 10
7661.816117568524
 20
11225.9238669625
 10
7611.816117568524
 20
11225.9238669625
 10
7611.816117568524
 20
11275.9238669625
  0
LWPOLYLINE
  5
139
330
1F
100
AcDbEntity
  8
0
100
AcDbPolyline
 90
        5
 70
     0
 43
0.0
 10
7681.816117568524
 20
11275.9238669625
 10
7731.816117568524
 20
11275.9238669625
 10
7731.816117568524
 20
11225.9238669625
 10
7681.816117568524
 20
11225.9238669625
 10
7681.816117568524
 20
11275.9238669625
  0
LWPOLYLINE
  5
13A
330
1F
100
AcDbEntity
  8
0
100
AcDbPolyline
 90
        5
 70
     0
 43
0.0
 10
7751.816117568524
 20
11275.9238669625
 10
7801.816117568524
 20
11275.9238669625
 10
7801.816117568524
 20
11225.9238669625
 10
7751.816117568524
 20
11225.9238669625
 10
7751.816117568524
 20
11275.9238669625
  0
LWPOLYLINE
  5
13B
330
1F
100
AcDbEntity
  8
0
100
AcDbPolyline
 90
        5
 70
     0
 43
0.0
 10
7471.816117568524
 20
11135.9238669625
 10
7521.816117568524
 20
11135.9238669625
 10
7521.816117568524
 20
11085.9238669625
 10
7471.816117568524
 20
11085.9238669625
 10
7471.816117568524
 20
11135.9238669625
  0
LWPOLYLINE
  5
13C
330
1F
100
AcDbEntity
  8
0
100
AcDbPolyline
 90
        5
 70
     0
 43
0.0
 10
7541.816117568524
 20
11135.9238669625
 10
7591.816117568524
 20
11135.9238669625
 10
7591.816117568524
 20
11085.9238669625
 10
7541.816117568524
 20
11085.9238669625
 10
7541.816117568524
 20
11135.9238669625
  0
LWPOLYLINE
  5
13D
330
1F
100
AcDbEntity
  8
0
100
AcDbPolyline
 90
        5
 70
     0
 43
0.0
 10
7611.816117568524
 20
11135.9238669625
 10
7661.816117568524
 20
11135.9238669625
 10
7661.816117568524
 20
11085.9238669625
 10
7611.816117568524
 20
11085.9238669625
 10
7611.816117568524
 20
11135.9238669625
  0
LWPOLYLINE
  5
13E
330
1F
100
AcDbEntity
  8
0
100
AcDbPolyline
 90
        5
 70
     0
 43
0.0
 10
7681.816117568524
 20
11135.9238669625
 10
7731.816117568524
 20
11135.9238669625
 10
7731.816117568524
 20
11085.9238669625
 10
7681.816117568524
 20
11085.9238669625
 10
7681.816117568524
 20
11135.9238669625
  0
LWPOLYLINE
  5
13F
330
1F
100
AcDbEntity
  8
0
100
AcDbPolyline
 90
        5
 70
     0
 43
0.0
 10
7751.816117568524
 20
11135.9238669625
 10
7801.816117568524
 20
11135.9238669625
 10
7801.816117568524
 20
11085.9238669625
 10
7751.816117568524
 20
11085.9238669625
 10
7751.816117568524
 20
11135.9238669625
  0
LWPOLYLINE
  5
140
330
1F
100
AcDbEntity
  8
0
100
AcDbPolyline
 90
        6
 70
     0
 43
0.0
 10
7451.816117568524
 20
11401.7843175899
 10
7451.816117568524
 20
11225.9238669625
 10
7416.816117568524
 20
11225.9238669625
 10
7416.816117568524
 20
11135.9238669625
 10
7451.816117568524
 20
11135.9238669625
 10
7451.816117568524
 20
11085.9238669625
  0
LWPOLYLINE
  5
141
330
1F
100
AcDbEntity
  8
0
100
AcDbPolyline
 90
        5
 70
     0
 43
0.0
 10
7856.816117568524
 20
11205.9238669625
 10
7906.816117568524
 20
11205.9238669625
 10
7906.816117568524
 20
11155.9238669625
 10
7856.816117568524
 20
11155.9238669625
 10
7856.816117568524
 20
11205.9238669625
  0
LWPOLYLINE
  5
142
330
1F
100
AcDbEntity
  8
0
100
AcDbPolyline
 90
        5
 70
     0
 43
0.0
 10
7926.816117568524
 20
11205.9238669625
 10
7976.816117568524
 20
11205.9238669625
 10
7976.816117568524
 20
11155.9238669625
 10
7926.816117568524
 20
11155.9238669625
 10
7926.816117568524
 20
11205.9238669625
  0
LWPOLYLINE
  5
143
330
1F
100
AcDbEntity
  8
0
100
AcDbPolyline
 90
        5
 70
     0
 43
0.0
 10
7996.816117568524
 20
11205.9238669625
 10
8046.816117568524
 20
11205.9238669625
 10
8046.816117568524
 20
11155.9238669625
 10
7996.816117568524
 20
11155.9238669625
 10
7996.816117568524
 20
11205.9238669625
  0
LWPOLYLINE
  5
144
330
1F
100
AcDbEntity
  8
0
100
AcDbPolyline
 90
        5
 70
     0
 43
0.0
 10
7821.816117568524
 20
11275.9238669625
 10
7871.816117568524
 20
11275.9238669625
 10
7871.816117568524
 20
11225.9238669625
 10
7821.816117568524
 20
11225.9238669625
 10
7821.816117568524
 20
11275.9238669625
  0
LWPOLYLINE
  5
145
330
1F
100
AcDbEntity
  8
0
100
AcDbPolyline
 90
        5
 70
     0
 43
0.0
 10
7891.816117568524
 20
11275.9238669625
 10
7941.816117568524
 20
11275.9238669625
 10
7941.816117568524
 20
11225.9238669625
 10
7891.816117568524
 20
11225.9238669625
 10
7891.816117568524
 20
11275.9238669625
  0
LWPOLYLINE
  5
146
330
1F
100
AcDbEntity
  8
0
100
AcDbPolyline
 90
        5
 70
     0
 43
0.0
 10
7961.816117568524
 20
11275.9238669625
 10
8011.816117568524
 20
11275.9238669625
 10
8011.816117568524
 20
11225.9238669625
 10
7961.816117568524
 20
11225.9238669625
 10
7961.816117568524
 20
11275.9238669625
  0
LWPOLYLINE
  5
147
330
1F
100
AcDbEntity
  8
0
100
AcDbPolyline
 90
        5
 70
     0
 43
0.0
 10
7821.816117568524
 20
11135.9238669625
 10
7871.816117568524
 20
11135.9238669625
 10
7871.816117568524
 20
11085.9238669625
 10
7821.816117568524
 20
11085.9238669625
 10
7821.816117568524
 20
11135.9238669625
  0
LWPOLYLINE
  5
148
330
1F
100
AcDbEntity
  8
0
100
AcDbPolyline
 90
        5
 70
     0
 43
0.0
 10
7891.816117568524
 20
11135.9238669625
 10
7941.816117568524
 20
11135.9238669625
 10
7941.816117568524
 20
11085.9238669625
 10
7891.816117568524
 20
11085.9238669625
 10
7891.816117568524
 20
11135.9238669625
  0
LWPOLYLINE
  5
149
330
1F
100
AcDbEntity
  8
0
100
AcDbPolyline
 90
        5
 70
     0
 43
0.0
 10
7961.816117568524
 20
11135.9238669625
 10
8011.816117568524
 20
11135.9238669625
 10
8011.816117568524
 20
11085.9238669625
 10
7961.816117568524
 20
11085.9238669625
 10
7961.816117568524
 20
11135.9238669625
  0
LWPOLYLINE
  5
14A
330
1F
100
AcDbEntity
  8
0
100
AcDbPolyline
 90
        6
 70
     0
 43
0.0
 10
8031.816117568524
 20
11399.96534061567
 10
8031.816117568524
 20
11225.9238669625
 10
8066.816117568524
 20
11225.9238669625
 10
8066.816117568524
 20
11135.9238669625
 10
8031.816117568524
 20
11135.9238669625
 10
8031.816117568524
 20
11085.9238669625
  0
LWPOLYLINE
  5
14B
330
1F
100
AcDbEntity
  8
0
100
AcDbPolyline
 90
        2
 70
     0
 43
0.0
 10
8031.712332225172
 20
11025.77035947891
 10
8031.816117568524
 20
11085.9238669625
  0
LWPOLYLINE
  5
14C
330
1F
100
AcDbEntity
  8
0
100
AcDbPolyline
 90
        2
 70
     0
 43
0.0
 10
7113.262726975139
 20
13611.52556607781
 10
7613.262726975139
 20
13611.52556607781
  0
LWPOLYLINE
  5
14D
330
1F
100
AcDbEntity
  8
0
100
AcDbPolyline
 90
        2
 70
     0
 43
0.0
 10
6928.158941631787
 20
13861.52556607781
 10
7613.262726975139
 20
13861.52556607781
  0
LWPOLYLINE
  5
14E
330
1F
100
AcDbEntity
  8
0
100
AcDbPolyline
 90
        2
 70
     0
 43
0.0
 10
6348.262726975139
 20
13861.52556607781
 10
5663.262726975139
 20
13861.52556607781
  0
LWPOLYLINE
  5
14F
330
1F
100
AcDbEntity
  8
0
100
AcDbPolyline
 90
        2
 70
     0
 43
0.0
 10
6163.262726975139
 20
13611.52556607781
 10
5663.262726975139
 20
13611.52556607781
  0
LWPOLYLINE
  5
150
330
1F
100
AcDbEntity
  8
0
100
AcDbPolyline
 90
        5
 70
     0
 43
0.0
 10
7613.262726975139
 20
13861.52556607781
 10
8509.709336381988
 20
13861.52556607781
 10
8716.816117568524
 20
13861.52556607781
 10
8863.262726975256
 20
13715.07895667107
 10
8863.262726975256
 20
13507.97217548454
  0
LWPOLYLINE
  5
151
330
1F
100
AcDbEntity
  8
0
100
AcDbPolyline
 90
        4
 70
     0
 43
0.0
 10
7613.262726975139
 20
13611.52556607781
 10
8509.709336381988
 20
13611.52556607781
 10
8613.262726975256
 20
13611.52556607781
 10
8613.262726975256
 20
13507.97217548454
  0
LWPOLYLINE
  5
152
330
1F
100
AcDbEntity
  8
0
100
AcDbPolyline
 90
        5
 70
     0
 43
0.0
 10
5663.262726975139
 20
13861.52556607781
 10
4766.816117568407
 20
13861.52556607781
 10
4559.709336381871
 20
13861.52556607781
 10
4413.262726975139
 20
13715.07895667107
 10
4413.262726975139
 20
13507.97217548454
  0
LWPOLYLINE
  5
153
330
1F
100
AcDbEntity
  8
0
100
AcDbPolyline
 90
        4
 70
     0
 43
0.0
 10
5663.262726975139
 20
13611.52556607781
 10
4766.816117568407
 20
13611.52556607781
 10
4663.262726975139
 20
13611.52556607781
 10
4663.262726975139
 20
13507.97217548454
  0
LWPOLYLINE
  5
154
330
1F
100
AcDbEntity
  8
0
100
AcDbPolyline
 90
       18
 70
     0
 43
0.0
 10
6928.262726975139
 20
14235.72054721457
 10
7031.107201769366
 20
14327.56706804149
 10
7105.628334857523
 20
14456.64145678772
 10
7138.793359125964
 20
14601.94692217764
 10
7127.65541662625
 20
14750.57243594901
 10
7073.204162427573
 20
14889.31196897083
 10
6980.277829420869
 20
15005.83790488578
 10
6857.133330094162
 20
15089.79640292203
 10
6714.712593623437
 20
15133.72738208344
 10
6565.670327447238
 20
15133.72738208344
 10
6423.249590976629
 20
15089.79640292203
 10
6300.105091649923
 20
15005.83790488578
 10
6207.178758643102
 20
14889.31196897083
 10
6152.727504444425
 20
14750.57243594901
 10
6141.589561944827
 20
14601.94692217764
 10
6174.754586213268
 20
14456.64145678772
 10
6249.275719301309
 20
14327.56706804149
 10
6348.262726975139
 20
14237.5395241888
  0
LWPOLYLINE
  5
155
330
1F
100
AcDbEntity
  8
0
100
AcDbPolyline
 90
       20
 70
     0
 43
0.0
 10
6545.501581936493
 20
14500.42742524885
 10
6415.499726091861
 20
14309.74972347986
 10
6328.341972267255
 20
14390.62030074043
 10
6268.89341400424
 20
14493.58822408867
 10
6242.436316590174
 20
14609.50434166782
 10
6251.321509235306
 20
14728.06899774152
 10
6294.759503581095
 20
14838.74720230508
 10
6368.890643205494
 20
14931.70471117979
 10
6467.128051033709
 20
14998.68184176485
 10
6580.742902272381
 20
15033.72738208344
 10
6699.640018798411
 20
15033.72738208344
 10
6813.254870037083
 20
14998.68184176485
 10
6911.492277865182
 20
14931.70471117979
 10
6985.62341748958
 20
14838.74720230508
 10
7029.06141183537
 20
14728.06899774152
 10
7037.946604480618
 20
14609.50434166782
 10
7011.489507066552
 20
14493.58822408867
 10
6952.04094880342
 20
14390.62030074043
 10
6864.883194978931
 20
14309.74972347986
 10
6734.881339134183
 20
14500.42742524885
  0
LWPOLYLINE
  5
156
330
1F
100
AcDbEntity
  8
0
100
AcDbPolyline
 90
       14
 70
     0
 43
0.0
 10
6734.972686406807
 20
14709.30513006188
 10
6735.406340544461
 20
14818.13069454762
 10
6733.279397462844
 20
14846.5127775281
 10
6722.881182675599
 20
14873.00699671685
 10
6705.135623198468
 20
14895.25922447101
 10
6681.619489865727
 20
14911.29225270225
 10
6654.422294323216
 20
14919.68147649262
 10
6625.960626747576
 20
14919.68147649262
 10
6598.763431205065
 20
14911.2922527023
 10
6575.247297872324
 20
14895.25922447101
 10
6557.501738395076
 20
14873.00699671685
 10
6547.103523607831
 20
14846.5127775281
 10
6544.976580526331
 20
14818.13069454762
 10
6545.501581936493
 20
14686.38151965792
  0
LWPOLYLINE
  5
157
330
1F
100
AcDbEntity
  8
0
100
AcDbPolyline
 90
        2
 70
     0
 43
0.0
 10
6734.881339134183
 20
14500.42742524885
 10
6734.972686406807
 20
14709.30513006188
  0
LWPOLYLINE
  5
158
330
1F
100
AcDbEntity
  8
0
100
AcDbPolyline
 90
        2
 70
     0
 43
0.0
 10
6545.501581936493
 20
14500.42742524885
 10
6545.501581936493
 20
14686.38151965792
  0
LWPOLYLINE
  5
159
330
1F
100
AcDbEntity
  8
0
100
AcDbPolyline
 90
        2
 70
     0
 43
0.0
 10
6348.262726975139
 20
13861.52556607781
 10
6348.262726975139
 20
13921.6790735614
  0
LWPOLYLINE
  5
15A
330
1F
100
AcDbEntity
  8
0
100
AcDbPolyline
 90
        5
 70
     0
 43
0.0
 10
6333.262726975139
 20
14041.6790735614
 10
6383.262726975139
 20
14041.6790735614
 10
6383.262726975139
 20
13991.6790735614
 10
6333.262726975139
 20
13991.6790735614
 10
6333.262726975139
 20
14041.6790735614
  0
LWPOLYLINE
  5
15B
330
1F
100
AcDbEntity
  8
0
100
AcDbPolyline
 90
        5
 70
     0
 43
0.0
 10
6403.262726975139
 20
14041.6790735614
 10
6453.262726975139
 20
14041.6790735614
 10
6453.262726975139
 20
13991.6790735614
 10
6403.262726975139
 20
13991.6790735614
 10
6403.262726975139
 20
14041.6790735614
  0
LWPOLYLINE
  5
15C
330
1F
100
AcDbEntity
  8
0
100
AcDbPolyline
 90
        5
 70
     0
 43
0.0
 10
6473.262726975139
 20
14041.6790735614
 10
6523.262726975139
 20
14041.6790735614
 10
6523.262726975139
 20
13991.6790735614
 10
6473.262726975139
 20
13991.6790735614
 10
6473.262726975139
 20
14041.6790735614
  0
LWPOLYLINE
  5
15D
330
1F
100
AcDbEntity
  8
0
100
AcDbPolyline
 90
        5
 70
     0
 43
0.0
 10
6543.262726975139
 20
14041.6790735614
 10
6593.262726975139
 20
14041.6790735614
 10
6593.262726975139
 20
13991.6790735614
 10
6543.262726975139
 20
13991.6790735614
 10
6543.262726975139
 20
14041.6790735614
  0
LWPOLYLINE
  5
15E
330
1F
100
AcDbEntity
  8
0
100
AcDbPolyline
 90
        5
 70
     0
 43
0.0
 10
6613.262726975139
 20
14041.6790735614
 10
6663.262726975139
 20
14041.6790735614
 10
6663.262726975139
 20
13991.6790735614
 10
6613.262726975139
 20
13991.6790735614
 10
6613.262726975139
 20
14041.6790735614
  0
LWPOLYLINE
  5
15F
330
1F
100
AcDbEntity
  8
0
100
AcDbPolyline
 90
        5
 70
     0
 43
0.0
 10
6683.262726975139
 20
14041.6790735614
 10
6733.262726975139
 20
14041.6790735614
 10
6733.262726975139
 20
13991.6790735614
 10
6683.262726975139
 20
13991.6790735614
 10
6683.262726975139
 20
14041.6790735614
  0
LWPOLYLINE
  5
160
330
1F
100
AcDbEntity
  8
0
100
AcDbPolyline
 90
        5
 70
     0
 43
0.0
 10
6368.262726975139
 20
14111.6790735614
 10
6418.262726975139
 20
14111.6790735614
 10
6418.262726975139
 20
14061.6790735614
 10
6368.262726975139
 20
14061.6790735614
 10
6368.262726975139
 20
14111.6790735614
  0
LWPOLYLINE
  5
161
330
1F
100
AcDbEntity
  8
0
100
AcDbPolyline
 90
        5
 70
     0
 43
0.0
 10
6438.262726975139
 20
14111.6790735614
 10
6488.262726975139
 20
14111.6790735614
 10
6488.262726975139
 20
14061.6790735614
 10
6438.262726975139
 20
14061.6790735614
 10
6438.262726975139
 20
14111.6790735614
  0
LWPOLYLINE
  5
162
330
1F
100
AcDbEntity
  8
0
100
AcDbPolyline
 90
        5
 70
     0
 43
0.0
 10
6508.262726975139
 20
14111.6790735614
 10
6558.262726975139
 20
14111.6790735614
 10
6558.262726975139
 20
14061.6790735614
 10
6508.262726975139
 20
14061.6790735614
 10
6508.262726975139
 20
14111.6790735614
  0
LWPOLYLINE
  5
163
330
1F
100
AcDbEntity
  8
0
100
AcDbPolyline
 90
        5
 70
     0
 43
0.0
 10
6578.262726975139
 20
14111.6790735614
 10
6628.262726975139
 20
14111.6790735614
 10
6628.262726975139
 20
14061.6790735614
 10
6578.262726975139
 20
14061.6790735614
 10
6578.262726975139
 20
14111.6790735614
  0
LWPOLYLINE
  5
164
330
1F
100
AcDbEntity
  8
0
100
AcDbPolyline
 90
        5
 70
     0
 43
0.0
 10
6648.262726975139
 20
14111.6790735614
 10
6698.262726975139
 20
14111.6790735614
 10
6698.262726975139
 20
14061.6790735614
 10
6648.262726975139
 20
14061.6790735614
 10
6648.262726975139
 20
14111.6790735614
  0
LWPOLYLINE
  5
165
330
1F
100
AcDbEntity
  8
0
100
AcDbPolyline
 90
        5
 70
     0
 43
0.0
 10
6368.262726975139
 20
13971.6790735614
 10
6418.262726975139
 20
13971.6790735614
 10
6418.262726975139
 20
13921.6790735614
 10
6368.262726975139
 20
13921.6790735614
 10
6368.262726975139
 20
13971.6790735614
  0
LWPOLYLINE
  5
166
330
1F
100
AcDbEntity
  8
0
100
AcDbPolyline
 90
        5
 70
     0
 43
0.0
 10
6438.262726975139
 20
13971.6790735614
 10
6488.262726975139
 20
13971.6790735614
 10
6488.262726975139
 20
13921.6790735614
 10
6438.262726975139
 20
13921.6790735614
 10
6438.262726975139
 20
13971.6790735614
  0
LWPOLYLINE
  5
167
330
1F
100
AcDbEntity
  8
0
100
AcDbPolyline
 90
        5
 70
     0
 43
0.0
 10
6508.262726975139
 20
13971.6790735614
 10
6558.262726975139
 20
13971.6790735614
 10
6558.262726975139
 20
13921.6790735614
 10
6508.262726975139
 20
13921.6790735614
 10
6508.262726975139
 20
13971.6790735614
  0
LWPOLYLINE
  5
168
330
1F
100
AcDbEntity
  8
0
100
AcDbPolyline
 90
        5
 70
     0
 43
0.0
 10
6578.262726975139
 20
13971.6790735614
 10
6628.262726975139
 20
13971.6790735614
 10
6628.262726975139
 20
13921.6790735614
 10
6578.262726975139
 20
13921.6790735614
 10
6578.262726975139
 20
13971.6790735614
  0
LWPOLYLINE
  5
169
330
1F
100
AcDbEntity
  8
0
100
AcDbPolyline
 90
        5
 70
     0
 43
0.0
 10
6648.262726975139
 20
13971.6790735614
 10
6698.262726975139
 20
13971.6790735614
 10
6698.262726975139
 20
13921.6790735614
 10
6648.262726975139
 20
13921.6790735614
 10
6648.262726975139
 20
13971.6790735614
  0
LWPOLYLINE
  5
16A
330
1F
100
AcDbEntity
  8
0
100
AcDbPolyline
 90
        6
 70
     0
 43
0.0
 10
6348.262726975139
 20
14237.5395241888
 10
6348.262726975139
 20
14061.6790735614
 10
6313.262726975139
 20
14061.6790735614
 10
6313.262726975139
 20
13971.6790735614
 10
6348.262726975139
 20
13971.6790735614
 10
6348.262726975139
 20
13921.6790735614
  0
LWPOLYLINE
  5
16B
330
1F
100
AcDbEntity
  8
0
100
AcDbPolyline
 90
        5
 70
     0
 43
0.0
 10
6753.262726975139
 20
14041.6790735614
 10
6803.262726975139
 20
14041.6790735614
 10
6803.262726975139
 20
13991.6790735614
 10
6753.262726975139
 20
13991.6790735614
 10
6753.262726975139
 20
14041.6790735614
  0
LWPOLYLINE
  5
16C
330
1F
100
AcDbEntity
  8
0
100
AcDbPolyline
 90
        5
 70
     0
 43
0.0
 10
6823.262726975139
 20
14041.6790735614
 10
6873.262726975139
 20
14041.6790735614
 10
6873.262726975139
 20
13991.6790735614
 10
6823.262726975139
 20
13991.6790735614
 10
6823.262726975139
 20
14041.6790735614
  0
LWPOLYLINE
  5
16D
330
1F
100
AcDbEntity
  8
0
100
AcDbPolyline
 90
        5
 70
     0
 43
0.0
 10
6893.262726975139
 20
14041.6790735614
 10
6943.262726975139
 20
14041.6790735614
 10
6943.262726975139
 20
13991.6790735614
 10
6893.262726975139
 20
13991.6790735614
 10
6893.262726975139
 20
14041.6790735614
  0
LWPOLYLINE
  5
16E
330
1F
100
AcDbEntity
  8
0
100
AcDbPolyline
 90
        5
 70
     0
 43
0.0
 10
6718.262726975139
 20
14111.6790735614
 10
6768.262726975139
 20
14111.6790735614
 10
6768.262726975139
 20
14061.6790735614
 10
6718.262726975139
 20
14061.6790735614
 10
6718.262726975139
 20
14111.6790735614
  0
LWPOLYLINE
  5
16F
330
1F
100
AcDbEntity
  8
0
100
AcDbPolyline
 90
        5
 70
     0
 43
0.0
 10
6788.262726975139
 20
14111.6790735614
 10
6838.262726975139
 20
14111.6790735614
 10
6838.262726975139
 20
14061.6790735614
 10
6788.262726975139
 20
14061.6790735614
 10
6788.262726975139
 20
14111.6790735614
  0
LWPOLYLINE
  5
170
330
1F
100
AcDbEntity
  8
0
100
AcDbPolyline
 90
        5
 70
     0
 43
0.0
 10
6858.262726975139
 20
14111.6790735614
 10
6908.262726975139
 20
14111.6790735614
 10
6908.262726975139
 20
14061.6790735614
 10
6858.262726975139
 20
14061.6790735614
 10
6858.262726975139
 20
14111.6790735614
  0
LWPOLYLINE
  5
171
330
1F
100
AcDbEntity
  8
0
100
AcDbPolyline
 90
        5
 70
     0
 43
0.0
 10
6718.262726975139
 20
13971.6790735614
 10
6768.262726975139
 20
13971.6790735614
 10
6768.262726975139
 20
13921.6790735614
 10
6718.262726975139
 20
13921.6790735614
 10
6718.262726975139
 20
13971.6790735614
  0
LWPOLYLINE
  5
172
330
1F
100
AcDbEntity
  8
0
100
AcDbPolyline
 90
        5
 70
     0
 43
0.0
 10
6788.262726975139
 20
13971.6790735614
 10
6838.262726975139
 20
13971.6790735614
 10
6838.262726975139
 20
13921.6790735614
 10
6788.262726975139
 20
13921.6790735614
 10
6788.262726975139
 20
13971.6790735614
  0
LWPOLYLINE
  5
173
330
1F
100
AcDbEntity
  8
0
100
AcDbPolyline
 90
        5
 70
     0
 43
0.0
 10
6858.262726975139
 20
13971.6790735614
 10
6908.262726975139
 20
13971.6790735614
 10
6908.262726975139
 20
13921.6790735614
 10
6858.262726975139
 20
13921.6790735614
 10
6858.262726975139
 20
13971.6790735614
  0
LWPOLYLINE
  5
174
330
1F
100
AcDbEntity
  8
0
100
AcDbPolyline
 90
        6
 70
     0
 43
0.0
 10
6928.262726975139
 20
14235.72054721457
 10
6928.262726975139
 20
14061.6790735614
 10
6963.262726975139
 20
14061.6790735614
 10
6963.262726975139
 20
13971.6790735614
 10
6928.262726975139
 20
13971.6790735614
 10
6928.262726975139
 20
13921.6790735614
  0
LWPOLYLINE
  5
175
330
1F
100
AcDbEntity
  8
0
100
AcDbPolyline
 90
        2
 70
     0
 43
0.0
 10
6928.158941631787
 20
13861.52556607781
 10
6928.262726975139
 20
13921.6790735614
  0
LWPOLYLINE
  5
176
330
1F
100
AcDbEntity
  8
0
100
AcDbPolyline
 90
        2
 70
     0
 43
0.0
 10
6163.262726975139
 20
13611.52556607781
 10
7113.262726975139
 20
13611.52556607781
  0
LWPOLYLINE
  5
177
330
1F
100
AcDbEntity
  8
0
100
AcDbPolyline
 90
        2
 70
     0
 43
0.0
 10
4413.262726975139
 20
7913.568543473273
 10
4413.262726975139
 20
13507.97217548454
  0
LWPOLYLINE
  5
178
330
1F
100
AcDbEntity
  8
0
100
AcDbPolyline
 90
        2
 70
     0
 43
0.0
 10
4663.262726975139
 20
7695.015152880005
 10
4663.262726975139
 20
13507.97217548454
  0
LWPOLYLINE
  5
179
330
1F
100
AcDbEntity
  8
0
100
AcDbPolyline
 90
        2
 70
     0
 43
0.0
 10
8613.262726975256
 20
13507.97217548454
 10
8613.262726975256
 20
7695.015152880005
  0
LWPOLYLINE
  5
17A
330
1F
100
AcDbEntity
  8
0
100
AcDbPolyline
 90
        2
 70
     0
 43
0.0
 10
8863.262726975256
 20
7913.568543473273
 10
8863.262726975256
 20
13507.97217548454
  0
LWPOLYLINE
  5
17B
330
1F
100
AcDbEntity
  8
0
100
AcDbPolyline
 90
        3
 70
     0
 43
0.0
 10
8146.712332225172
 20
7795.015152880005
 10
8178.158941631904
 20
7826.461762286737
 10
8178.158941631904
 20
8033.568543473273
  0
LWPOLYLINE
  5
17C
330
1F
100
AcDbEntity
  8
0
100
AcDbPolyline
 90
        3
 70
     0
 43
0.0
 10
5129.709336381871
 20
7795.015152880005
 10
5098.262726975139
 20
7826.461762286737
 10
5098.262726975139
 20
8033.568543473273
  0
LWPOLYLINE
  5
17D
330
1F
100
AcDbEntity
  8
0
100
AcDbPolyline
 90
        2
 70
     0
 43
0.0
 10
5248.262726975139
 20
10672.21696888564
 10
5248.262726975256
 20
7945.216968885637
  0
LWPOLYLINE
  5
17E
330
1F
100
AcDbEntity
  8
0
100
AcDbPolyline
 90
        2
 70
     0
 43
0.0
 10
5098.262726975139
 20
10672.21696888564
 10
5098.262726975139
 20
8033.568543473273
  0
LWPOLYLINE
  5
17F
330
1F
100
AcDbEntity
  8
0
100
AcDbPolyline
 90
        2
 70
     0
 43
0.0
 10
8028.158941631904
 20
10672.21696888564
 10
8028.158941631904
 20
7945.216968885637
  0
LWPOLYLINE
  5
180
330
1F
100
AcDbEntity
  8
0
100
AcDbPolyline
 90
        2
 70
     0
 43
0.0
 10
8178.158941631904
 20
10672.21696888564
 10
8178.158941631904
 20
8033.568543473273
  0
LWPOLYLINE
  5
181
330
1F
100
AcDbEntity
  8
0
100
AcDbPolyline
 90
        2
 70
     0
 43
0.0
 10
6613.262726975139
 20
7795.015152880005
 10
5129.709336381871
 20
7795.015152880005
  0
LWPOLYLINE
  5
182
330
1F
100
AcDbEntity
  8
0
100
AcDbPolyline
 90
        3
 70
     0
 43
0.0
 10
5248.262726975256
 20
7945.216968885637
 10
6528.262726974906
 20
7845.015152880005
 10
6613.262726975139
 20
7845.015152880005
  0
LWPOLYLINE
  5
183
330
1F
100
AcDbEntity
  8
0
100
AcDbPolyline
 90
        3
 70
     0
 43
0.0
 10
8028.158941631904
 20
7945.216968885637
 10
6748.262726975139
 20
7845.015152880005
 10
6663.262726975139
 20
7845.015152880005
  0
LWPOLYLINE
  5
184
330
1F
100
AcDbEntity
  8
0
100
AcDbPolyline
 90
        2
 70
     0
 43
0.0
 10
6663.262726975139
 20
7795.015152880005
 10
8146.712332225172
 20
7795.015152880005
  0
LWPOLYLINE
  5
185
330
1F
100
AcDbEntity
  8
0
100
AcDbPolyline
 90
        2
 70
     0
 43
0.0
 10
6613.262726975139
 20
7695.015152880005
 10
4663.262726975139
 20
7695.015152880005
  0
LWPOLYLINE
  5
186
330
1F
100
AcDbEntity
  8
0
100
AcDbPolyline
 90
        2
 70
     0
 43
0.0
 10
6663.262726975139
 20
7695.015152880005
 10
8613.262726975256
 20
7695.015152880005
  0
LWPOLYLINE
  5
187
330
1F
100
AcDbEntity
  8
0
100
AcDbPolyline
 90
        6
 70
     0
 43
0.0
 10
6714.712593623437
 20
17633.72738208344
 10
691.0609109696234
 20
17633.72738208344
 10
691.060910969507
 20
737.8133368743147
 10
12585.46454298089
 20
737.8133368743147
 10
12585.46454298077
 20
17633.72738208344
 10
6714.712593623437
 20
17633.72738208344
  0
LWPOLYLINE
  5
188
330
1F
100
AcDbEntity
  8
0
100
AcDbPolyline
 90
        5
 70
     1
 43
0.0
 10
6714.712593623437
 20
17383.72738208344
 10
941.0609109696234
 20
17383.72738208344
 10
941.060910969507
 20
987.8133368743147
 10
12335.46454298089
 20
987.8133368743147
 10
12335.46454298077
 20
17383.72738208344
  0
LWPOLYLINE
  5
189
330
1F
100
AcDbEntity
  8
0
100
AcDbPolyline
 90
       18
 70
     0
 43
0.0
 10
5824.709336381871
 20
11399.96534061567
 10
5927.553811176098
 20
11491.81186144259
 10
6002.074944264255
 20
11620.88625018882
 10
6035.239968532696
 20
11766.19171557874
 10
6024.102026032982
 20
11914.81722935011
 10
5969.650771834305
 20
12053.55676237193
 10
5876.724438827601
 20
12170.08269828687
 10
5753.579939500894
 20
12254.04119632313
 10
5611.159203030169
 20
12297.97217548454
 10
5462.11693685397
 20
12297.97217548454
 10
5319.696200383361
 20
12254.04119632313
 10
5196.551701056655
 20
12170.08269828687
 10
5103.625368049834
 20
12053.55676237193
 10
5049.174113851157
 20
11914.81722935011
 10
5038.036171351559
 20
11766.19171557874
 10
5071.20119562
 20
11620.88625018882
 10
5145.722328708041
 20
11491.81186144259
 10
5244.709336381871
 20
11401.7843175899
  0
LWPOLYLINE
  5
18A
330
1F
100
AcDbEntity
  8
0
100
AcDbPolyline
 90
       20
 70
     0
 43
0.0
 10
5441.948191343225
 20
11664.67221864995
 10
5311.946335498593
 20
11473.99451688096
 10
5224.788581673987
 20
11554.86509414153
 10
5165.340023410972
 20
11657.83301748977
 10
5138.882925996906
 20
11773.74913506892
 10
5147.768118642038
 20
11892.31379114262
 10
5191.206112987828
 20
12002.99199570618
 10
5265.337252612226
 20
12095.94950458089
 10
5363.574660440441
 20
12162.92663516595
 10
5477.189511679113
 20
12197.97217548454
 10
5596.086628205143
 20
12197.97217548454
 10
5709.701479443815
 20
12162.92663516595
 10
5807.938887271914
 20
12095.94950458089
 10
5882.070026896312
 20
12002.99199570618
 10
5925.508021242102
 20
11892.31379114262
 10
5934.39321388735
 20
11773.74913506892
 10
5907.936116473284
 20
11657.83301748977
 10
5848.487558210152
 20
11554.86509414153
 10
5761.329804385663
 20
11473.99451688096
 10
5631.327948540915
 20
11664.67221864995
  0
LWPOLYLINE
  5
18B
330
1F
100
AcDbEntity
  8
0
100
AcDbPolyline
 90
       14
 70
     0
 43
0.0
 10
5631.419295813539
 20
11873.54992346298
 10
5631.852949951193
 20
11982.37548794872
 10
5629.726006869576
 20
12010.7575709292
 10
5619.327792082331
 20
12037.25179011795
 10
5601.5822326052
 20
12059.50401787211
 10
5578.066099272459
 20
12075.53704610335
 10
5550.868903729948
 20
12083.92626989372
 10
5522.407236154308
 20
12083.92626989372
 10
5495.210040611797
 20
12075.5370461034
 10
5471.693907279056
 20
12059.50401787211
 10
5453.948347801808
 20
12037.25179011795
 10
5443.550133014563
 20
12010.7575709292
 10
5441.423189933063
 20
11982.37548794872
 10
5441.948191343225
 20
11850.62631305902
  0
LWPOLYLINE
  5
18C
330
1F
100
AcDbEntity
  8
0
100
AcDbPolyline
 90
        2
 70
     0
 43
0.0
 10
5631.327948540915
 20
11664.67221864995
 10
5631.419295813539
 20
11873.54992346298
  0
LWPOLYLINE
  5
18D
330
1F
100
AcDbEntity
  8
0
100
AcDbPolyline
 90
        2
 70
     0
 43
0.0
 10
5441.948191343225
 20
11664.67221864995
 10
5441.948191343225
 20
11850.62631305902
  0
LWPOLYLINE
  5
18E
330
1F
100
AcDbEntity
  8
0
100
AcDbPolyline
 90
        2
 70
     0
 43
0.0
 10
5244.709336381871
 20
11025.77035947891
 10
5244.709336381871
 20
11085.9238669625
  0
LWPOLYLINE
  5
18F
330
1F
100
AcDbEntity
  8
0
100
AcDbPolyline
 90
        5
 70
     0
 43
0.0
 10
5229.709336381871
 20
11205.9238669625
 10
5279.709336381871
 20
11205.9238669625
 10
5279.709336381871
 20
11155.9238669625
 10
5229.709336381871
 20
11155.9238669625
 10
5229.709336381871
 20
11205.9238669625
  0
LWPOLYLINE
  5
190
330
1F
100
AcDbEntity
  8
0
100
AcDbPolyline
 90
        5
 70
     0
 43
0.0
 10
5299.709336381871
 20
11205.9238669625
 10
5349.709336381871
 20
11205.9238669625
 10
5349.709336381871
 20
11155.9238669625
 10
5299.709336381871
 20
11155.9238669625
 10
5299.709336381871
 20
11205.9238669625
  0
LWPOLYLINE
  5
191
330
1F
100
AcDbEntity
  8
0
100
AcDbPolyline
 90
        5
 70
     0
 43
0.0
 10
5369.709336381871
 20
11205.9238669625
 10
5419.709336381871
 20
11205.9238669625
 10
5419.709336381871
 20
11155.9238669625
 10
5369.709336381871
 20
11155.9238669625
 10
5369.709336381871
 20
11205.9238669625
  0
LWPOLYLINE
  5
192
330
1F
100
AcDbEntity
  8
0
100
AcDbPolyline
 90
        5
 70
     0
 43
0.0
 10
5439.709336381871
 20
11205.9238669625
 10
5489.709336381871
 20
11205.9238669625
 10
5489.709336381871
 20
11155.9238669625
 10
5439.709336381871
 20
11155.9238669625
 10
5439.709336381871
 20
11205.9238669625
  0
LWPOLYLINE
  5
193
330
1F
100
AcDbEntity
  8
0
100
AcDbPolyline
 90
        5
 70
     0
 43
0.0
 10
5509.709336381871
 20
11205.9238669625
 10
5559.709336381871
 20
11205.9238669625
 10
5559.709336381871
 20
11155.9238669625
 10
5509.709336381871
 20
11155.9238669625
 10
5509.709336381871
 20
11205.9238669625
  0
LWPOLYLINE
  5
194
330
1F
100
AcDbEntity
  8
0
100
AcDbPolyline
 90
        5
 70
     0
 43
0.0
 10
5579.709336381871
 20
11205.9238669625
 10
5629.709336381871
 20
11205.9238669625
 10
5629.709336381871
 20
11155.9238669625
 10
5579.709336381871
 20
11155.9238669625
 10
5579.709336381871
 20
11205.9238669625
  0
LWPOLYLINE
  5
195
330
1F
100
AcDbEntity
  8
0
100
AcDbPolyline
 90
        5
 70
     0
 43
0.0
 10
5264.709336381871
 20
11275.9238669625
 10
5314.709336381871
 20
11275.9238669625
 10
5314.709336381871
 20
11225.9238669625
 10
5264.709336381871
 20
11225.9238669625
 10
5264.709336381871
 20
11275.9238669625
  0
LWPOLYLINE
  5
196
330
1F
100
AcDbEntity
  8
0
100
AcDbPolyline
 90
        5
 70
     0
 43
0.0
 10
5334.709336381871
 20
11275.9238669625
 10
5384.709336381871
 20
11275.9238669625
 10
5384.709336381871
 20
11225.9238669625
 10
5334.709336381871
 20
11225.9238669625
 10
5334.709336381871
 20
11275.9238669625
  0
LWPOLYLINE
  5
197
330
1F
100
AcDbEntity
  8
0
100
AcDbPolyline
 90
        5
 70
     0
 43
0.0
 10
5404.709336381871
 20
11275.9238669625
 10
5454.709336381871
 20
11275.9238669625
 10
5454.709336381871
 20
11225.9238669625
 10
5404.709336381871
 20
11225.9238669625
 10
5404.709336381871
 20
11275.9238669625
  0
LWPOLYLINE
  5
198
330
1F
100
AcDbEntity
  8
0
100
AcDbPolyline
 90
        5
 70
     0
 43
0.0
 10
5474.709336381871
 20
11275.9238669625
 10
5524.709336381871
 20
11275.9238669625
 10
5524.709336381871
 20
11225.9238669625
 10
5474.709336381871
 20
11225.9238669625
 10
5474.709336381871
 20
11275.9238669625
  0
LWPOLYLINE
  5
199
330
1F
100
AcDbEntity
  8
0
100
AcDbPolyline
 90
        5
 70
     0
 43
0.0
 10
5544.709336381871
 20
11275.9238669625
 10
5594.709336381871
 20
11275.9238669625
 10
5594.709336381871
 20
11225.9238669625
 10
5544.709336381871
 20
11225.9238669625
 10
5544.709336381871
 20
11275.9238669625
  0
LWPOLYLINE
  5
19A
330
1F
100
AcDbEntity
  8
0
100
AcDbPolyline
 90
        5
 70
     0
 43
0.0
 10
5264.709336381871
 20
11135.9238669625
 10
5314.709336381871
 20
11135.9238669625
 10
5314.709336381871
 20
11085.9238669625
 10
5264.709336381871
 20
11085.9238669625
 10
5264.709336381871
 20
11135.9238669625
  0
LWPOLYLINE
  5
19B
330
1F
100
AcDbEntity
  8
0
100
AcDbPolyline
 90
        5
 70
     0
 43
0.0
 10
5334.709336381871
 20
11135.9238669625
 10
5384.709336381871
 20
11135.9238669625
 10
5384.709336381871
 20
11085.9238669625
 10
5334.709336381871
 20
11085.9238669625
 10
5334.709336381871
 20
11135.9238669625
  0
LWPOLYLINE
  5
19C
330
1F
100
AcDbEntity
  8
0
100
AcDbPolyline
 90
        5
 70
     0
 43
0.0
 10
5404.709336381871
 20
11135.9238669625
 10
5454.709336381871
 20
11135.9238669625
 10
5454.709336381871
 20
11085.9238669625
 10
5404.709336381871
 20
11085.9238669625
 10
5404.709336381871
 20
11135.9238669625
  0
LWPOLYLINE
  5
19D
330
1F
100
AcDbEntity
  8
0
100
AcDbPolyline
 90
        5
 70
     0
 43
0.0
 10
5474.709336381871
 20
11135.9238669625
 10
5524.709336381871
 20
11135.9238669625
 10
5524.709336381871
 20
11085.9238669625
 10
5474.709336381871
 20
11085.9238669625
 10
5474.709336381871
 20
11135.9238669625
  0
LWPOLYLINE
  5
19E
330
1F
100
AcDbEntity
  8
0
100
AcDbPolyline
 90
        5
 70
     0
 43
0.0
 10
5544.709336381871
 20
11135.9238669625
 10
5594.709336381871
 20
11135.9238669625
 10
5594.709336381871
 20
11085.9238669625
 10
5544.709336381871
 20
11085.9238669625
 10
5544.709336381871
 20
11135.9238669625
  0
LWPOLYLINE
  5
19F
330
1F
100
AcDbEntity
  8
0
100
AcDbPolyline
 90
        6
 70
     0
 43
0.0
 10
5244.709336381871
 20
11401.7843175899
 10
5244.709336381871
 20
11225.9238669625
 10
5209.709336381871
 20
11225.9238669625
 10
5209.709336381871
 20
11135.9238669625
 10
5244.709336381871
 20
11135.9238669625
 10
5244.709336381871
 20
11085.9238669625
  0
LWPOLYLINE
  5
1A0
330
1F
100
AcDbEntity
  8
0
100
AcDbPolyline
 90
        5
 70
     0
 43
0.0
 10
5649.709336381871
 20
11205.9238669625
 10
5699.709336381871
 20
11205.9238669625
 10
5699.709336381871
 20
11155.9238669625
 10
5649.709336381871
 20
11155.9238669625
 10
5649.709336381871
 20
11205.9238669625
  0
LWPOLYLINE
  5
1A1
330
1F
100
AcDbEntity
  8
0
100
AcDbPolyline
 90
        5
 70
     0
 43
0.0
 10
5719.709336381871
 20
11205.9238669625
 10
5769.709336381871
 20
11205.9238669625
 10
5769.709336381871
 20
11155.9238669625
 10
5719.709336381871
 20
11155.9238669625
 10
5719.709336381871
 20
11205.9238669625
  0
LWPOLYLINE
  5
1A2
330
1F
100
AcDbEntity
  8
0
100
AcDbPolyline
 90
        5
 70
     0
 43
0.0
 10
5789.709336381871
 20
11205.9238669625
 10
5839.709336381871
 20
11205.9238669625
 10
5839.709336381871
 20
11155.9238669625
 10
5789.709336381871
 20
11155.9238669625
 10
5789.709336381871
 20
11205.9238669625
  0
LWPOLYLINE
  5
1A3
330
1F
100
AcDbEntity
  8
0
100
AcDbPolyline
 90
        5
 70
     0
 43
0.0
 10
5614.709336381871
 20
11275.9238669625
 10
5664.709336381871
 20
11275.9238669625
 10
5664.709336381871
 20
11225.9238669625
 10
5614.709336381871
 20
11225.9238669625
 10
5614.709336381871
 20
11275.9238669625
  0
LWPOLYLINE
  5
1A4
330
1F
100
AcDbEntity
  8
0
100
AcDbPolyline
 90
        5
 70
     0
 43
0.0
 10
5684.709336381871
 20
11275.9238669625
 10
5734.709336381871
 20
11275.9238669625
 10
5734.709336381871
 20
11225.9238669625
 10
5684.709336381871
 20
11225.9238669625
 10
5684.709336381871
 20
11275.9238669625
  0
LWPOLYLINE
  5
1A5
330
1F
100
AcDbEntity
  8
0
100
AcDbPolyline
 90
        5
 70
     0
 43
0.0
 10
5754.709336381871
 20
11275.9238669625
 10
5804.709336381871
 20
11275.9238669625
 10
5804.709336381871
 20
11225.9238669625
 10
5754.709336381871
 20
11225.9238669625
 10
5754.709336381871
 20
11275.9238669625
  0
LWPOLYLINE
  5
1A6
330
1F
100
AcDbEntity
  8
0
100
AcDbPolyline
 90
        5
 70
     0
 43
0.0
 10
5614.709336381871
 20
11135.9238669625
 10
5664.709336381871
 20
11135.9238669625
 10
5664.709336381871
 20
11085.9238669625
 10
5614.709336381871
 20
11085.9238669625
 10
5614.709336381871
 20
11135.9238669625
  0
LWPOLYLINE
  5
1A7
330
1F
100
AcDbEntity
  8
0
100
AcDbPolyline
 90
        5
 70
     0
 43
0.0
 10
5684.709336381871
 20
11135.9238669625
 10
5734.709336381871
 20
11135.9238669625
 10
5734.709336381871
 20
11085.9238669625
 10
5684.709336381871
 20
11085.9238669625
 10
5684.709336381871
 20
11135.9238669625
  0
LWPOLYLINE
  5
1A8
330
1F
100
AcDbEntity
  8
0
100
AcDbPolyline
 90
        5
 70
     0
 43
0.0
 10
5754.709336381871
 20
11135.9238669625
 10
5804.709336381871
 20
11135.9238669625
 10
5804.709336381871
 20
11085.9238669625
 10
5754.709336381871
 20
11085.9238669625
 10
5754.709336381871
 20
11135.9238669625
  0
LWPOLYLINE
  5
1A9
330
1F
100
AcDbEntity
  8
0
100
AcDbPolyline
 90
        6
 70
     0
 43
0.0
 10
5824.709336381871
 20
11399.96534061567
 10
5824.709336381871
 20
11225.9238669625
 10
5859.709336381871
 20
11225.9238669625
 10
5859.709336381871
 20
11135.9238669625
 10
5824.709336381871
 20
11135.9238669625
 10
5824.709336381871
 20
11085.9238669625
  0
LWPOLYLINE
  5
1AA
330
1F
100
AcDbEntity
  8
0
100
AcDbPolyline
 90
        2
 70
     0
 43
0.0
 10
5824.346749812248
 20
11025.77035947891
 10
5824.709336381871
 20
11085.9238669625
  0
LWPOLYLINE
  5
1AB
330
1F
100
AcDbEntity
  8
0
100
AcDbPolyline
 90
        2
 70
     0
 43
0.0
 10
7601.816117568524
 20
10875.77035947891
 10
7451.816117568524
 20
11025.77035947891
  0
LWPOLYLINE
  5
1AC
330
1F
100
AcDbEntity
  8
0
100
AcDbPolyline
 90
        2
 70
     0
 43
0.0
 10
5674.346749812248
 20
10875.77035947891
 10
5824.346749812248
 20
11025.77035947891
  0
LWPOLYLINE
  5
1AD
330
1F
100
AcDbEntity
  8
0
100
AcDbPolyline
 90
        2
 70
     0
 43
0.0
 10
6663.262726975139
 20
7935.015152880005
 10
6769.923531592824
 20
8876.31062055497
  0
LWPOLYLINE
  5
1AE
330
1F
100
AcDbEntity
  8
0
100
AcDbPolyline
 90
        2
 70
     0
 43
0.0
 10
6613.262726975139
 20
7935.015152880005
 10
6506.720479203388
 20
8876.31062055497
  0
LWPOLYLINE
  5
1AF
330
1F
100
AcDbEntity
  8
0
100
AcDbPolyline
 90
       18
 70
     0
 43
0.0
 10
6921.024770035059
 20
9109.682168615065
 10
7030.280482237227
 20
9211.056654843691
 10
7104.801615325268
 20
9340.131043589863
 10
7137.966639593826
 20
9485.436508979838
 10
7126.828697094112
 20
9634.062022751212
 10
7072.377442895435
 20
9772.801555773025
 10
6979.451109888731
 20
9889.327491687975
 10
6856.306610562024
 20
9973.28598972423
 10
6713.885874091298
 20
10017.21696888564
 10
6564.8436079151
 20
10017.21696888564
 10
6422.422871444491
 20
9973.28598972423
 10
6299.278372117784
 20
9889.327491687975
 10
6206.352039110963
 20
9772.801555773025
 10
6151.900784912286
 20
9634.062022751212
 10
6140.762842412572
 20
9485.436508979838
 10
6173.92786668113
 20
9340.131043589863
 10
6248.448999769171
 20
9211.056654843691
 10
6357.704711971455
 20
9109.682168615065
  0
LWPOLYLINE
  5
1B0
330
1F
100
AcDbEntity
  8
0
100
AcDbPolyline
 90
       20
 70
     0
 43
0.0
 10
6544.674862404354
 20
9383.917012050995
 10
6414.673006559722
 20
9193.239310282064
 10
6327.515252735117
 20
9274.109887542625
 10
6268.066694472102
 20
9377.07781089087
 10
6241.609597058035
 20
9492.993928470081
 10
6250.494789703167
 20
9611.558584543716
 10
6293.932784048957
 20
9722.236789107279
 10
6368.063923673355
 20
9815.194297981987
 10
6466.301331501571
 20
9882.171428567046
 10
6579.916182740242
 20
9917.216968885637
 10
6698.813299266272
 20
9917.216968885637
 10
6812.428150504944
 20
9882.171428567046
 10
6910.665558333043
 20
9815.194297981987
 10
6984.796697957441
 20
9722.236789107279
 10
7028.234692303231
 20
9611.558584543716
 10
7037.119884948363
 20
9492.993928470081
 10
7010.662787534297
 20
9377.07781089087
 10
6951.214229271282
 20
9274.109887542625
 10
6864.056475446792
 20
9193.239310282064
 10
6734.054619602044
 20
9383.917012050995
  0
LWPOLYLINE
  5
1B1
330
1F
100
AcDbEntity
  8
0
100
AcDbPolyline
 90
       14
 70
     0
 43
0.0
 10
6734.145966874668
 20
9592.794716864082
 10
6734.579621012323
 20
9701.620281349824
 10
6732.452677930705
 20
9730.0023643303
 10
6722.05446314346
 20
9756.496583519052
 10
6704.308903666213
 20
9778.74881127321
 10
6680.792770333588
 20
9794.781839504445
 10
6653.595574790961
 20
9803.171063294765
 10
6625.133907215437
 20
9803.171063294765
 10
6597.936711672926
 20
9794.781839504503
 10
6574.420578340185
 20
9778.74881127321
 10
6556.675018862938
 20
9756.496583519052
 10
6546.276804075693
 20
9730.0023643303
 10
6544.149860994192
 20
9701.620281349824
 10
6544.674862404354
 20
9569.871106460123
  0
LWPOLYLINE
  5
1B2
330
1F
100
AcDbEntity
  8
0
100
AcDbPolyline
 90
        2
 70
     0
 43
0.0
 10
6734.054619602044
 20
9383.917012050995
 10
6734.145966874668
 20
9592.794716864082
  0
LWPOLYLINE
  5
1B3
330
1F
100
AcDbEntity
  8
0
100
AcDbPolyline
 90
        2
 70
     0
 43
0.0
 10
6544.674862404354
 20
9383.917012050995
 10
6544.674862404354
 20
9569.871106460123
  0
LWPOLYLINE
  5
1B4
330
1F
100
AcDbEntity
  8
0
100
AcDbPolyline
 90
        2
 70
     0
 43
0.0
 10
6613.262726975139
 20
7845.015152880005
 10
6613.262726975139
 20
7935.015152880005
  0
LWPOLYLINE
  5
1B5
330
1F
100
AcDbEntity
  8
0
100
AcDbPolyline
 90
        2
 70
     0
 43
0.0
 10
6663.262726975139
 20
7845.015152880005
 10
6663.262726975139
 20
7935.015152880005
  0
LWPOLYLINE
  5
1B6
330
1F
100
AcDbEntity
  8
0
100
AcDbPolyline
 90
        4
 70
     0
 43
0.0
 10
6357.704711971455
 20
9109.682168615065
 10
6383.262726975139
 20
9084.530188291406
 10
6418.262726975139
 20
9014.530188291406
 10
6506.720479203388
 20
8876.31062055497
  0
LWPOLYLINE
  5
1B7
330
1F
100
AcDbEntity
  8
0
100
AcDbPolyline
 90
        4
 70
     0
 43
0.0
 10
6921.024770035059
 20
9109.682168615065
 10
6893.262726975139
 20
9084.530188291406
 10
6858.262726975139
 20
9014.530188291406
 10
6769.923531592824
 20
8876.31062055497
  0
CIRCLE
  5
1B8
330
1F
100
AcDbEntity
  8
0
100
AcDbCircle
 10
6428.262726975139
 20
9079.530188291406
 30
0.0
 40
8.0
  0
CIRCLE
  5
1B9
330
1F
100
AcDbEntity
  8
0
100
AcDbCircle
 10
6498.262726975139
 20
9079.530188291406
 30
0.0
 40
8.0
  0
CIRCLE
  5
1BA
330
1F
100
AcDbEntity
  8
0
100
AcDbCircle
 10
6568.262726975139
 20
9079.530188291406
 30
0.0
 40
8.0
  0
CIRCLE
  5
1BB
330
1F
100
AcDbEntity
  8
0
100
AcDbCircle
 10
6638.262726975139
 20
9079.530188291406
 30
0.0
 40
8.0
  0
CIRCLE
  5
1BC
330
1F
100
AcDbEntity
  8
0
100
AcDbCircle
 10
6463.262726975139
 20
9019.530188291406
 30
0.0
 40
8.0
  0
CIRCLE
  5
1BD
330
1F
100
AcDbEntity
  8
0
100
AcDbCircle
 10
6533.262726975139
 20
9019.530188291406
 30
0.0
 40
8.0
  0
CIRCLE
  5
1BE
330
1F
100
AcDbEntity
  8
0
100
AcDbCircle
 10
6603.262726975139
 20
9019.530188291406
 30
0.0
 40
8.0
  0
CIRCLE
  5
1BF
330
1F
100
AcDbEntity
  8
0
100
AcDbCircle
 10
6673.262726975139
 20
9019.530188291406
 30
0.0
 40
8.0
  0
CIRCLE
  5
1C0
330
1F
100
AcDbEntity
  8
0
100
AcDbCircle
 10
6708.262726975139
 20
9079.530188291406
 30
0.0
 40
8.0
  0
CIRCLE
  5
1C1
330
1F
100
AcDbEntity
  8
0
100
AcDbCircle
 10
6778.262726975139
 20
9079.530188291406
 30
0.0
 40
8.0
  0
CIRCLE
  5
1C2
330
1F
100
AcDbEntity
  8
0
100
AcDbCircle
 10
6848.262726975139
 20
9079.530188291406
 30
0.0
 40
8.0
  0
CIRCLE
  5
1C3
330
1F
100
AcDbEntity
  8
0
100
AcDbCircle
 10
6813.262726975139
 20
9019.530188291406
 30
0.0
 40
8.0
  0
CIRCLE
  5
1C4
330
1F
100
AcDbEntity
  8
0
100
AcDbCircle
 10
6743.262726975139
 20
9019.530188291406
 30
0.0
 40
8.0
  0
CIRCLE
  5
1C5
330
1F
100
AcDbEntity
  8
0
100
AcDbCircle
 10
6498.262726975139
 20
8959.530188291406
 30
0.0
 40
8.0
  0
CIRCLE
  5
1C6
330
1F
100
AcDbEntity
  8
0
100
AcDbCircle
 10
6568.262726975139
 20
8959.530188291406
 30
0.0
 40
8.0
  0
CIRCLE
  5
1C7
330
1F
100
AcDbEntity
  8
0
100
AcDbCircle
 10
6638.262726975139
 20
8959.530188291406
 30
0.0
 40
8.0
  0
CIRCLE
  5
1C8
330
1F
100
AcDbEntity
  8
0
100
AcDbCircle
 10
6708.262726975139
 20
8959.530188291406
 30
0.0
 40
8.0
  0
CIRCLE
  5
1C9
330
1F
100
AcDbEntity
  8
0
100
AcDbCircle
 10
6778.262726975139
 20
8959.530188291406
 30
0.0
 40
8.0
  0
CIRCLE
  5
1CA
330
1F
100
AcDbEntity
  8
0
100
AcDbCircle
 10
6743.262726975139
 20
8899.530188291406
 30
0.0
 40
8.0
  0
CIRCLE
  5
1CB
330
1F
100
AcDbEntity
  8
0
100
AcDbCircle
 10
6673.262726975139
 20
8899.530188291406
 30
0.0
 40
8.0
  0
CIRCLE
  5
1CC
330
1F
100
AcDbEntity
  8
0
100
AcDbCircle
 10
6603.262726975139
 20
8899.530188291406
 30
0.0
 40
8.0
  0
CIRCLE
  5
1CD
330
1F
100
AcDbEntity
  8
0
100
AcDbCircle
 10
6533.262726975139
 20
8899.530188291406
 30
0.0
 40
8.0
  0
LWPOLYLINE
  5
1CE
330
1F
100
AcDbEntity
  8
0
100
AcDbPolyline
 90
       18
 70
     0
 43
0.0
 10
6355.500683915336
 20
4380.348137144887
 10
6246.244971713051
 20
4278.973650916261
 10
6171.72383862501
 20
4149.899262170089
 10
6138.558814356569
 20
4004.593796780115
 10
6149.696756856167
 20
3855.96828300874
 10
6204.148011054844
 20
3717.228749986927
 10
6297.074344061664
 20
3600.702814071978
 10
6420.218843388371
 20
3516.744316035722
 10
6562.63957985898
 20
3472.813336874315
 10
6711.681846035179
 20
3472.813336874315
 10
6854.102582505904
 20
3516.744316035722
 10
6977.247081832611
 20
3600.702814071978
 10
7070.173414839315
 20
3717.228749986927
 10
7124.624669037992
 20
3855.96828300874
 10
7135.762611537706
 20
4004.593796780115
 10
7102.597587269149
 20
4149.899262170089
 10
7028.076454181108
 20
4278.973650916261
 10
6918.82074197894
 20
4380.348137144887
  0
LWPOLYLINE
  5
1CF
330
1F
100
AcDbEntity
  8
0
100
AcDbPolyline
 90
       20
 70
     0
 43
0.0
 10
6731.850591545925
 20
4106.113293708957
 10
6861.852447390673
 20
4296.790995477888
 10
6949.010201215278
 20
4215.920418217327
 10
7008.458759478293
 20
4112.952494869081
 10
7034.915856892359
 20
3997.036377289929
 10
7026.030664247228
 20
3878.471721216236
 10
6982.592669901322
 20
3767.793516652673
 10
6908.461530276923
 20
3674.836007777965
 10
6810.224122448824
 20
3607.858877192906
 10
6696.609271210153
 20
3572.813336874315
 10
6577.712154684123
 20
3572.813336874315
 10
6464.097303445451
 20
3607.858877192906
 10
6365.859895617235
 20
3674.836007777965
 10
6291.728755992837
 20
3767.793516652673
 10
6248.290761647047
 20
3878.471721216236
 10
6239.405569001916
 20
3997.036377289929
 10
6265.862666415982
 20
4112.952494869081
 10
6325.311224678997
 20
4215.920418217327
 10
6412.468978503603
 20
4296.790995477888
 10
6542.470834348234
 20
4106.113293708957
  0
LWPOLYLINE
  5
1D0
330
1F
100
AcDbEntity
  8
0
100
AcDbPolyline
 90
       14
 70
     0
 43
0.0
 10
6542.379487075727
 20
3897.23558889587
 10
6541.945832938072
 20
3788.410024410128
 10
6544.072776019573
 20
3760.027941429653
 10
6554.470990806818
 20
3733.5337222409
 10
6572.216550284065
 20
3711.281494486742
 10
6595.732683616807
 20
3695.248466255507
 10
6622.929879159317
 20
3686.859242465245
 10
6651.391546734958
 20
3686.859242465245
 10
6678.588742277469
 20
3695.248466255507
 10
6702.104875610094
 20
3711.281494486742
 10
6719.850435087341
 20
3733.5337222409
 10
6730.248649874586
 20
3760.027941429653
 10
6732.375592956203
 20
3788.410024410128
 10
6731.850591545925
 20
3920.159199299829
  0
LWPOLYLINE
  5
1D1
330
1F
100
AcDbEntity
  8
0
100
AcDbPolyline
 90
        2
 70
     0
 43
0.0
 10
6542.470834348234
 20
4106.113293708957
 10
6542.379487075727
 20
3897.23558889587
  0
LWPOLYLINE
  5
1D2
330
1F
100
AcDbEntity
  8
0
100
AcDbPolyline
 90
        2
 70
     0
 43
0.0
 10
6731.850591545925
 20
4106.113293708957
 10
6731.850591545925
 20
3920.159199299829
  0
LWPOLYLINE
  5
1D3
330
1F
100
AcDbEntity
  8
0
100
AcDbPolyline
 90
        2
 70
     0
 43
0.0
 10
6355.500683915336
 20
4380.348137144887
 10
6388.262726975139
 20
4445.015152880005
  0
LWPOLYLINE
  5
1D4
330
1F
100
AcDbEntity
  8
0
100
AcDbPolyline
 90
        2
 70
     0
 43
0.0
 10
6918.82074197894
 20
4380.348137144887
 10
6888.262726975139
 20
4445.015152880005
  0
LWPOLYLINE
  5
1D5
330
1F
100
AcDbEntity
  8
0
100
AcDbPolyline
 90
        2
 70
     0
 43
0.0
 10
6888.262726975139
 20
4445.015152880005
 10
6688.262726975139
 20
6970.015152880005
  0
LWPOLYLINE
  5
1D6
330
1F
100
AcDbEntity
  8
0
100
AcDbPolyline
 90
        2
 70
     0
 43
0.0
 10
6388.262726975139
 20
4445.015152880005
 10
6588.262726975139
 20
6970.015152880005
  0
LWPOLYLINE
  5
1D7
330
1F
100
AcDbEntity
  8
0
100
AcDbPolyline
 90
        2
 70
     0
 43
0.0
 10
6663.262726975139
 20
7645.015152880005
 10
6663.262726975139
 20
7495.015152880005
  0
LWPOLYLINE
  5
1D8
330
1F
100
AcDbEntity
  8
0
100
AcDbPolyline
 90
        2
 70
     0
 43
0.0
 10
6613.262726975139
 20
7645.015152880005
 10
6613.262726975139
 20
7495.015152880005
  0
LWPOLYLINE
  5
1D9
330
1F
100
AcDbEntity
  8
0
100
AcDbPolyline
 90
        2
 70
     0
 43
0.0
 10
6688.262726975139
 20
7470.015152880005
 10
6663.262726975139
 20
7495.015152880005
  0
LWPOLYLINE
  5
1DA
330
1F
100
AcDbEntity
  8
0
100
AcDbPolyline
 90
        2
 70
     0
 43
0.0
 10
6613.262726975139
 20
7495.015152880005
 10
6588.262726975139
 20
7470.015152880005
  0
LWPOLYLINE
  5
1DB
330
1F
100
AcDbEntity
  8
0
100
AcDbPolyline
 90
        2
 70
     0
 43
0.0
 10
6688.262726975139
 20
7470.015152880005
 10
6688.262726975139
 20
6970.015152880005
  0
LWPOLYLINE
  5
1DC
330
1F
100
AcDbEntity
  8
0
100
AcDbPolyline
 90
        2
 70
     0
 43
0.0
 10
6588.262726975139
 20
7470.015152880005
 10
6588.262726975139
 20
6970.015152880005
  0
LWPOLYLINE
  5
1DD
330
1F
100
AcDbEntity
  8
0
100
AcDbPolyline
 90
        2
 70
     0
 43
0.0
 10
6613.262726975139
 20
7795.015152880005
 10
6613.262726975139
 20
7695.015152880005
  0
LWPOLYLINE
  5
1DE
330
1F
100
AcDbEntity
  8
0
100
AcDbPolyline
 90
        2
 70
     0
 43
0.0
 10
6663.262726975139
 20
7795.015152880005
 10
6663.262726975139
 20
7695.015152880005
  0
ENDSEC
  0
SECTION
  2
OBJECTS
  0
DICTIONARY
  5
C
330
0
100
AcDbDictionary
281
     1
  3
ACAD_GROUP
350
D
  3
ACAD_IMAGE_VARS
350
6A
  3
ACAD_LAYOUT
350
1A
  3
ACAD_MLINESTYLE
350
17
  3
ACAD_PLOTSETTINGS
350
19
  3
ACAD_PLOTSTYLENAME
350
E
  3
ACAD_SCALELIST
350
40
  3
AcDbVariableDictionary
350
3D
  3
APPDATA
350
71
  0
DICTIONARY
  5
D
102
{ACAD_REACTORS
330
C
102
}
330
C
100
AcDbDictionary
281
     1
  0
RASTERVARIABLES
  5
6A
102
{ACAD_REACTORS
330
C
102
}
330
C
100
AcDbRasterVariables
 90
        0
 70
     1
 71
     1
 72
     1
  0
DICTIONARY
  5
1A
102
{ACAD_REACTORS
330
C
102
}
330
C
100
AcDbDictionary
281
     1
  3
Model
350
22
  3
Sheet1
350
1E
  3
Sheet2
350
26
  0
DICTIONARY
  5
17
102
{ACAD_REACTORS
330
C
102
}
330
C
100
AcDbDictionary
281
     1
  3
Standard
350
18
  0
DICTIONARY
  5
19
102
{ACAD_REACTORS
330
C
102
}
330
C
100
AcDbDictionary
281
     1
  0
ACDBDICTIONARYWDFLT
  5
E
102
{ACAD_REACTORS
330
C
102
}
330
C
100
AcDbDictionary
281
     1
  3
Normal
350
F
100
AcDbDictionaryWithDefault
340
F
  0
DICTIONARY
  5
40
102
{ACAD_REACTORS
330
C
102
}
330
C
100
AcDbDictionary
281
     1
  3
A0
350
41
  3
A1
350
42
  3
A2
350
43
  3
A3
350
44
  3
A4
350
45
  3
A5
350
46
  3
A6
350
47
  3
A7
350
48
  3
A8
350
49
  3
A9
350
4A
  3
B0
350
4B
  3
B1
350
4C
  3
B2
350
4D
  3
B3
350
4E
  3
B4
350
4F
  3
B5
350
50
  3
B6
350
51
  3
B7
350
52
  3
B8
350
53
  3
B9
350
54
  3
C0
350
55
  3
C1
350
56
  3
C2
350
57
  3
C3
350
58
  3
C4
350
59
  3
C5
350
5A
  3
C6
350
5B
  3
C7
350
5C
  3
C8
350
5D
  3
C9
350
5E
  3
D0
350
5F
  3
D1
350
60
  3
D2
350
61
  0
DICTIONARY
  5
3D
102
{ACAD_REACTORS
330
C
102
}
330
C
100
AcDbDictionary
281
     1
  3
CANNOSCALE
350
1E1
  3
XCLIPFRAME
350
70
  3
CANNOSCALE
350
1E0
  0
DICTIONARY
  5
71
102
{ACAD_REACTORS
330
C
102
}
330
C
100
AcDbDictionary
281
     1
  0
LAYOUT
  5
22
102
{ACAD_REACTORS
330
1A
102
}
330
1A
100
AcDbPlotSettings
  1

  2
none_device
  4
ISO_A3_(420.00_x_297.00_MM)
  6

 40
7.5
 41
20.0
 42
7.5
 43
20.0
 44
420.0
 45
297.0
 46
20.78282828282826
 47
0.0
 48
0.0
 49
0.0
140
0.0
141
0.0
142
1.0
143
1.155642023346303
 70
  1204
 72
     1
 73
     0
 74
     1
  7
monochrome.ctb
 75
     0
147
0.8653198653198654
148
-134.1869158878504
149
0.0
100
AcDbLayout
  1
Model
 70
     1
 71
     0
 10
0.0
 20
0.0
 11
420.0
 21
297.0
 12
0.0
 22
0.0
 32
0.0
 14
1.000000000000000E+20
 24
1.000000000000000E+20
 34
1.000000000000000E+20
 15
-1.000000000000000E+20
 25
-1.000000000000000E+20
 35
-1.000000000000000E+20
146
0.0
 13
0.0
 23
0.0
 33
0.0
 16
1.0
 26
0.0
 36
0.0
 17
0.0
 27
1.0
 37
0.0
 76
     0
330
1F
331
29
  0
LAYOUT
  5
1E
102
{ACAD_REACTORS
330
1A
102
}
330
1A
100
AcDbPlotSettings
  1

  2
none_device
  4

  6

 40
0.0
 41
0.0
 42
0.0
 43
0.0
 44
0.0
 45
0.0
 46
0.0
 47
0.0
 48
0.0
 49
0.0
140
0.0
141
0.0
142
1.0
143
1.0
 70
   688
 72
     0
 73
     0
 74
     5
  7

 75
    16
147
1.0
148
0.0
149
0.0
100
AcDbLayout
  1
Sheet1
 70
     1
 71
     1
 10
0.0
 20
0.0
 11
420.0
 21
297.0
 12
0.0
 22
0.0
 32
0.0
 14
1.000000000000000E+20
 24
1.000000000000000E+20
 34
1.000000000000000E+20
 15
-1.000000000000000E+20
 25
-1.000000000000000E+20
 35
-1.000000000000000E+20
146
0.0
 13
0.0
 23
0.0
 33
0.0
 16
1.0
 26
0.0
 36
0.0
 17
0.0
 27
1.0
 37
0.0
 76
     0
330
1B
  0
LAYOUT
  5
26
102
{ACAD_REACTORS
330
1A
102
}
330
1A
100
AcDbPlotSettings
  1

  2
none_device
  4

  6

 40
0.0
 41
0.0
 42
0.0
 43
0.0
 44
0.0
 45
0.0
 46
0.0
 47
0.0
 48
0.0
 49
0.0
140
0.0
141
0.0
142
1.0
143
1.0
 70
   688
 72
     0
 73
     0
 74
     5
  7

 75
    16
147
1.0
148
0.0
149
0.0
100
AcDbLayout
  1
Sheet2
 70
     1
 71
     2
 10
0.0
 20
0.0
 11
0.0
 21
0.0
 12
0.0
 22
0.0
 32
0.0
 14
0.0
 24
0.0
 34
0.0
 15
0.0
 25
0.0
 35
0.0
146
0.0
 13
0.0
 23
0.0
 33
0.0
 16
1.0
 26
0.0
 36
0.0
 17
0.0
 27
1.0
 37
0.0
 76
     0
330
23
  0
MLINESTYLE
  5
18
102
{ACAD_REACTORS
330
17
102
}
330
17
100
AcDbMlineStyle
  2
Standard
 70
     0
  3

 62
   256
 51
90.0
 52
90.0
 71
     2
 49
0.5
 62
   256
  6
BYLAYER
 49
-0.5
 62
   256
  6
BYLAYER
  0
ACDBPLACEHOLDER
  5
F
102
{ACAD_REACTORS
330
E
102
}
330
E
  0
SCALE
  5
41
102
{ACAD_REACTORS
330
40
102
}
330
40
100
AcDbScale
 70
     0
300
1:1
140
1.0
141
1.0
290
     1
  0
SCALE
  5
42
102
{ACAD_REACTORS
330
40
102
}
330
40
100
AcDbScale
 70
     0
300
1:2
140
1.0
141
2.0
290
     0
  0
SCALE
  5
43
102
{ACAD_REACTORS
330
40
102
}
330
40
100
AcDbScale
 70
     0
300
1:4
140
1.0
141
4.0
290
     0
  0
SCALE
  5
44
102
{ACAD_REACTORS
330
40
102
}
330
40
100
AcDbScale
 70
     0
300
1:5
140
1.0
141
5.0
290
     0
  0
SCALE
  5
45
102
{ACAD_REACTORS
330
40
102
}
330
40
100
AcDbScale
 70
     0
300
1:8
140
1.0
141
8.0
290
     0
  0
SCALE
  5
46
102
{ACAD_REACTORS
330
40
102
}
330
40
100
AcDbScale
 70
     0
300
1:10
140
1.0
141
10.0
290
     0
  0
SCALE
  5
47
102
{ACAD_REACTORS
330
40
102
}
330
40
100
AcDbScale
 70
     0
300
1:16
140
1.0
141
16.0
290
     0
  0
SCALE
  5
48
102
{ACAD_REACTORS
330
40
102
}
330
40
100
AcDbScale
 70
     0
300
1:20
140
1.0
141
20.0
290
     0
  0
SCALE
  5
49
102
{ACAD_REACTORS
330
40
102
}
330
40
100
AcDbScale
 70
     0
300
1:30
140
1.0
141
30.0
290
     0
  0
SCALE
  5
4A
102
{ACAD_REACTORS
330
40
102
}
330
40
100
AcDbScale
 70
     0
300
1:40
140
1.0
141
40.0
290
     0
  0
SCALE
  5
4B
102
{ACAD_REACTORS
330
40
102
}
330
40
100
AcDbScale
 70
     0
300
1:50
140
1.0
141
50.0
290
     0
  0
SCALE
  5
4C
102
{ACAD_REACTORS
330
40
102
}
330
40
100
AcDbScale
 70
     0
300
1:100
140
1.0
141
100.0
290
     0
  0
SCALE
  5
4D
102
{ACAD_REACTORS
330
40
102
}
330
40
100
AcDbScale
 70
     0
300
2:1
140
2.0
141
1.0
290
     0
  0
SCALE
  5
4E
102
{ACAD_REACTORS
330
40
102
}
330
40
100
AcDbScale
 70
     0
300
4:1
140
4.0
141
1.0
290
     0
  0
SCALE
  5
4F
102
{ACAD_REACTORS
330
40
102
}
330
40
100
AcDbScale
 70
     0
300
8:1
140
8.0
141
1.0
290
     0
  0
SCALE
  5
50
102
{ACAD_REACTORS
330
40
102
}
330
40
100
AcDbScale
 70
     0
300
10:1
140
10.0
141
1.0
290
     0
  0
SCALE
  5
51
102
{ACAD_REACTORS
330
40
102
}
330
40
100
AcDbScale
 70
     0
300
100:1
140
100.0
141
1.0
290
     0
  0
SCALE
  5
52
102
{ACAD_REACTORS
330
40
102
}
330
40
100
AcDbScale
 70
     0
300
1/128" = 1'-0"
140
0.0078125
141
12.0
290
     0
  0
SCALE
  5
53
102
{ACAD_REACTORS
330
40
102
}
330
40
100
AcDbScale
 70
     0
300
1/64" = 1'-0"
140
0.015625
141
12.0
290
     0
  0
SCALE
  5
54
102
{ACAD_REACTORS
330
40
102
}
330
40
100
AcDbScale
 70
     0
300
1/32" = 1'-0"
140
0.03125
141
12.0
290
     0
  0
SCALE
  5
55
102
{ACAD_REACTORS
330
40
102
}
330
40
100
AcDbScale
 70
     0
300
1/16" = 1'-0"
140
0.0625
141
12.0
290
     0
  0
SCALE
  5
56
102
{ACAD_REACTORS
330
40
102
}
330
40
100
AcDbScale
 70
     0
300
3/32" = 1'-0"
140
0.09375
141
12.0
290
     0
  0
SCALE
  5
57
102
{ACAD_REACTORS
330
40
102
}
330
40
100
AcDbScale
 70
     0
300
1/8" = 1'-0"
140
0.125
141
12.0
290
     0
  0
SCALE
  5
58
102
{ACAD_REACTORS
330
40
102
}
330
40
100
AcDbScale
 70
     0
300
3/16" = 1'-0"
140
0.1875
141
12.0
290
     0
  0
SCALE
  5
59
102
{ACAD_REACTORS
330
40
102
}
330
40
100
AcDbScale
 70
     0
300
1/4" = 1'-0"
140
0.25
141
12.0
290
     0
  0
SCALE
  5
5A
102
{ACAD_REACTORS
330
40
102
}
330
40
100
AcDbScale
 70
     0
300
3/8" = 1'-0"
140
0.375
141
12.0
290
     0
  0
SCALE
  5
5B
102
{ACAD_REACTORS
330
40
102
}
330
40
100
AcDbScale
 70
     0
300
1/2" = 1'-0"
140
0.5
141
12.0
290
     0
  0
SCALE
  5
5C
102
{ACAD_REACTORS
330
40
102
}
330
40
100
AcDbScale
 70
     0
300
3/4" = 1'-0"
140
0.75
141
12.0
290
     0
  0
SCALE
  5
5D
102
{ACAD_REACTORS
330
40
102
}
330
40
100
AcDbScale
 70
     0
300
1" = 1'-0"
140
1.0
141
12.0
290
     0
  0
SCALE
  5
5E
102
{ACAD_REACTORS
330
40
102
}
330
40
100
AcDbScale
 70
     0
300
1-1/2" = 1'-0"
140
1.5
141
12.0
290
     0
  0
SCALE
  5
5F
102
{ACAD_REACTORS
330
40
102
}
330
40
100
AcDbScale
 70
     0
300
3" = 1'-0"
140
3.0
141
12.0
290
     0
  0
SCALE
  5
60
102
{ACAD_REACTORS
330
40
102
}
330
40
100
AcDbScale
 70
     0
300
6" = 1'-0"
140
6.0
141
12.0
290
     0
  0
SCALE
  5
61
102
{ACAD_REACTORS
330
40
102
}
330
40
100
AcDbScale
 70
     0
300
1'-0" = 1'-0"
140
12.0
141
12.0
290
     0
  0
DICTIONARYVAR
  5
1E1
102
{ACAD_REACTORS
330
3D
102
}
330
3D
100
DictionaryVariables
280
     0
  1
1:1
  0
DICTIONARYVAR
  5
70
102
{ACAD_REACTORS
330
3D
102
}
330
3D
100
DictionaryVariables
280
     0
  1
0
  0
DICTIONARYVAR
  5
1E0
102
{ACAD_REACTORS
330
3D
102
}
330
3D
100
DictionaryVariables
280
     0
  1
1:1
  0
ENDSEC
  0
EOF
