  0
SECTION
  2
HEADER
  9
$ACADVER
  1
AC1015
  9
$ACADMAINTVER
 70
     6
  9
$DWGCODEPAGE
  3
ANSI_1251
  9
$INSBASE
 10
0.0
 20
0.0
 30
0.0
  9
$EXTMIN
 10
1.000000000000000E+20
 20
1.000000000000000E+20
 30
1.000000000000000E+20
  9
$EXTMAX
 10
-1.000000000000000E+20
 20
-1.000000000000000E+20
 30
-1.000000000000000E+20
  9
$LIMMIN
 10
0.0
 20
0.0
  9
$LIMMAX
 10
420.0
 20
297.0
  9
$ORTHOMODE
 70
     0
  9
$REGENMODE
 70
     1
  9
$FILLMODE
 70
     1
  9
$QTEXTMODE
 70
     0
  9
$MIRRTEXT
 70
     0
  9
$LTSCALE
 40
1.0
  9
$ATTMODE
 70
     1
  9
$TEXTSIZE
 40
2.5
  9
$TRACEWID
 40
1.0
  9
$TEXTSTYLE
  7
Standard
  9
$CLAYER
  8
0
  9
$CELTYPE
  6
ByLayer
  9
$CECOLOR
 62
   256
  9
$CELTSCALE
 40
1.0
  9
$DISPSILH
 70
     0
  9
$DIMSCALE
 40
1.0
  9
$DIMASZ
 40
2.5
  9
$DIMEXO
 40
0.625
  9
$DIMDLI
 40
3.75
  9
$DIMRND
 40
0.0
  9
$DIMDLE
 40
0.0
  9
$DIMEXE
 40
1.25
  9
$DIMTP
 40
0.0
  9
$DIMTM
 40
0.0
  9
$DIMTXT
 40
2.5
  9
$DIMCEN
 40
2.5
  9
$DIMTSZ
 40
0.0
  9
$DIMTOL
 70
     0
  9
$DIMLIM
 70
     0
  9
$DIMTIH
 70
     0
  9
$DIMTOH
 70
     0
  9
$DIMSE1
 70
     0
  9
$DIMSE2
 70
     0
  9
$DIMTAD
 70
     1
  9
$DIMZIN
 70
     8
  9
$DIMBLK
  1

  9
$DIMASO
 70
     1
  9
$DIMSHO
 70
     1
  9
$DIMPOST
  1

  9
$DIMAPOST
  1

  9
$DIMALT
 70
     0
  9
$DIMALTD
 70
     3
  9
$DIMALTF
 40
0.03937007874016
  9
$DIMLFAC
 40
1.0
  9
$DIMTOFL
 70
     1
  9
$DIMTVP
 40
0.0
  9
$DIMTIX
 70
     0
  9
$DIMSOXD
 70
     0
  9
$DIMSAH
 70
     0
  9
$DIMBLK1
  1

  9
$DIMBLK2
  1

  9
$DIMSTYLE
  2
ISO-25
  9
$DIMCLRD
 70
     0
  9
$DIMCLRE
 70
     0
  9
$DIMCLRT
 70
     0
  9
$DIMTFAC
 40
1.0
  9
$DIMGAP
 40
0.625
  9
$DIMJUST
 70
     0
  9
$DIMSD1
 70
     0
  9
$DIMSD2
 70
     0
  9
$DIMTOLJ
 70
     0
  9
$DIMTZIN
 70
     8
  9
$DIMALTZ
 70
     0
  9
$DIMALTTZ
 70
     0
  9
$DIMUPT
 70
     0
  9
$DIMDEC
 70
     2
  9
$DIMTDEC
 70
     2
  9
$DIMALTU
 70
     2
  9
$DIMALTTD
 70
     3
  9
$DIMTXSTY
  7
Standard
  9
$DIMAUNIT
 70
     0
  9
$DIMADEC
 70
     0
  9
$DIMALTRND
 40
0.0
  9
$DIMAZIN
 70
     0
  9
$DIMDSEP
 70
    44
  9
$DIMATFIT
 70
     3
  9
$DIMFRAC
 70
     0
  9
$DIMLDRBLK
  1

  9
$DIMLUNIT
 70
     2
  9
$DIMLWD
 70
    -2
  9
$DIMLWE
 70
    -2
  9
$DIMTMOVE
 70
     0
  9
$LUNITS
 70
     2
  9
$LUPREC
 70
     3
  9
$SKETCHINC
 40
1.0
  9
$FILLETRAD
 40
10.0
  9
$AUNITS
 70
     0
  9
$AUPREC
 70
     0
  9
$MENU
  1
.
  9
$ELEVATION
 40
0.0
  9
$PELEVATION
 40
0.0
  9
$THICKNESS
 40
0.0
  9
$LIMCHECK
 70
     0
  9
$CHAMFERA
 40
10.0
  9
$CHAMFERB
 40
10.0
  9
$CHAMFERC
 40
20.0
  9
$CHAMFERD
 40
0.0
  9
$SKPOLY
 70
     0
  9
$TDCREATE
 40
2455022.637359514
  9
$TDUCREATE
 40
2455022.637359514
  9
$TDUPDATE
 40
2456247.448388414
  9
$TDUUPDATE
 40
2456247.448388414
  9
$TDINDWG
 40
0.0000000116
  9
$TDUSRTIMER
 40
2456247.448024178
  9
$USRTIMER
 70
     1
  9
$ANGBASE
 50
0.0
  9
$ANGDIR
 70
     0
  9
$PDMODE
 70
     0
  9
$PDSIZE
 40
0.0
  9
$PLINEWID
 40
0.0
  9
$SPLFRAME
 70
     0
  9
$SPLINETYPE
 70
     6
  9
$SPLINESEGS
 70
     8
  9
$HANDSEED
  5
109
  9
$SURFTAB1
 70
     6
  9
$SURFTAB2
 70
     6
  9
$SURFTYPE
 70
     6
  9
$SURFU
 70
     6
  9
$SURFV
 70
     6
  9
$UCSBASE
  2

  9
$UCSNAME
  2

  9
$UCSORG
 10
0.0
 20
0.0
 30
0.0
  9
$UCSXDIR
 10
1.0
 20
0.0
 30
0.0
  9
$UCSYDIR
 10
0.0
 20
1.0
 30
0.0
  9
$UCSORTHOREF
  2

  9
$UCSORTHOVIEW
 70
     0
  9
$UCSORGTOP
 10
0.0
 20
0.0
 30
0.0
  9
$UCSORGBOTTOM
 10
0.0
 20
0.0
 30
0.0
  9
$UCSORGLEFT
 10
0.0
 20
0.0
 30
0.0
  9
$UCSORGRIGHT
 10
0.0
 20
0.0
 30
0.0
  9
$UCSORGFRONT
 10
0.0
 20
0.0
 30
0.0
  9
$UCSORGBACK
 10
0.0
 20
0.0
 30
0.0
  9
$PUCSBASE
  2

  9
$PUCSNAME
  2

  9
$PUCSORG
 10
0.0
 20
0.0
 30
0.0
  9
$PUCSXDIR
 10
1.0
 20
0.0
 30
0.0
  9
$PUCSYDIR
 10
0.0
 20
1.0
 30
0.0
  9
$PUCSORTHOREF
  2

  9
$PUCSORTHOVIEW
 70
     0
  9
$PUCSORGTOP
 10
0.0
 20
0.0
 30
0.0
  9
$PUCSORGBOTTOM
 10
0.0
 20
0.0
 30
0.0
  9
$PUCSORGLEFT
 10
0.0
 20
0.0
 30
0.0
  9
$PUCSORGRIGHT
 10
0.0
 20
0.0
 30
0.0
  9
$PUCSORGFRONT
 10
0.0
 20
0.0
 30
0.0
  9
$PUCSORGBACK
 10
0.0
 20
0.0
 30
0.0
  9
$USERI1
 70
     0
  9
$USERI2
 70
     0
  9
$USERI3
 70
     0
  9
$USERI4
 70
     0
  9
$USERI5
 70
     0
  9
$USERR1
 40
0.0
  9
$USERR2
 40
0.0
  9
$USERR3
 40
0.0
  9
$USERR4
 40
0.0
  9
$USERR5
 40
0.0
  9
$WORLDVIEW
 70
     1
  9
$SHADEDGE
 70
     3
  9
$SHADEDIF
 70
    70
  9
$TILEMODE
 70
     1
  9
$MAXACTVP
 70
    64
  9
$PINSBASE
 10
0.0
 20
0.0
 30
0.0
  9
$PLIMCHECK
 70
     0
  9
$PEXTMIN
 10
1.000000000000000E+20
 20
1.000000000000000E+20
 30
1.000000000000000E+20
  9
$PEXTMAX
 10
-1.000000000000000E+20
 20
-1.000000000000000E+20
 30
-1.000000000000000E+20
  9
$PLIMMIN
 10
0.0
 20
0.0
  9
$PLIMMAX
 10
420.0
 20
297.0
  9
$UNITMODE
 70
     0
  9
$VISRETAIN
 70
     1
  9
$PLINEGEN
 70
     0
  9
$PSLTSCALE
 70
     1
  9
$TREEDEPTH
 70
  3020
  9
$CMLSTYLE
  2
Standard
  9
$CMLJUST
 70
     0
  9
$CMLSCALE
 40
20.0
  9
$PROXYGRAPHICS
 70
     1
  9
$MEASUREMENT
 70
     1
  9
$CELWEIGHT
370
    -1
  9
$ENDCAPS
280
     0
  9
$JOINSTYLE
280
     0
  9
$LWDISPLAY
290
     0
  9
$INSUNITS
 70
     4
  9
$HYPERLINKBASE
  1

  9
$STYLESHEET
  1

  9
$XEDIT
290
     1
  9
$CEPSNTYPE
380
     0
  9
$PSTYLEMODE
290
     1
  9
$FINGERPRINTGUID
  2
{EC6BB858-51AA-46EC-B484-6C9CC7AB3E2E}
  9
$VERSIONGUID
  2
{FAEB1C32-E019-11D5-929B-00C0DF256EC4}
  9
$EXTNAMES
290
     1
  9
$PSVPSCALE
 40
0.0
  9
$OLESTARTUP
290
     0
  0
ENDSEC
  0
SECTION
  2
CLASSES
  0
CLASS
  1
ACDBDICTIONARYWDFLT
  2
AcDbDictionaryWithDefault
  3
ObjectDBX Classes
 90
        0
280
     0
281
     0
  0
CLASS
  1
VISUALSTYLE
  2
AcDbVisualStyle
  3
ObjectDBX Classes
 90
     4095
280
     0
281
     0
  0
CLASS
  1
TABLESTYLE
  2
AcDbTableStyle
  3
ObjectDBX Classes
 90
     4095
280
     0
281
     0
  0
CLASS
  1
DICTIONARYVAR
  2
AcDbDictionaryVar
  3
ObjectDBX Classes
 90
        0
280
     0
281
     0
  0
CLASS
  1
SCALE
  2
AcDbScale
  3
ObjectDBX Classes
 90
     1153
280
     0
281
     0
  0
CLASS
  1
CELLSTYLEMAP
  2
AcDbCellStyleMap
  3
ObjectDBX Classes
 90
     1152
280
     0
281
     0
  0
CLASS
  1
RASTERVARIABLES
  2
AcDbRasterVariables
  3
ISM
 90
        0
280
     0
281
     0
  0
CLASS
  1
MATERIAL
  2
AcDbMaterial
  3
ObjectDBX Classes
 90
     1153
280
     0
281
     0
  0
CLASS
  1
ACDBPLACEHOLDER
  2
AcDbPlaceHolder
  3
ObjectDBX Classes
 90
        0
280
     0
281
     0
  0
CLASS
  1
LAYOUT
  2
AcDbLayout
  3
ObjectDBX Classes
 90
        0
280
     0
281
     0
  0
ENDSEC
  0
SECTION
  2
TABLES
  0
TABLE
  2
VPORT
  5
8
330
0
100
AcDbSymbolTable
 70
     1
  0
VPORT
  5
29
330
8
100
AcDbSymbolTableRecord
100
AcDbViewportTableRecord
  2
*Active
 70
     0
 10
0.0
 20
0.0
 11
1.0
 21
1.0
 12
11715.08182095166
 22
7936.986327296259
 13
0.0
 23
0.0
 14
10.0
 24
10.0
 15
10.0
 25
10.0
 16
0.0
 26
0.0
 36
1.0
 17
-134.1869158878544
 27
0.0
 37
0.0
 40
17106.31636342442
 41
2.077821011673152
 42
50.0
 43
0.0
 44
0.0
 50
0.0
 51
0.0
 71
    16
 72
  1000
 73
     1
 74
     3
 75
     0
 76
     0
 77
     0
 78
     0
281
     0
 65
     1
110
0.0
120
0.0
130
0.0
111
1.0
121
0.0
131
0.0
112
0.0
122
1.0
132
0.0
 79
     0
146
0.0
  0
ENDTAB
  0
TABLE
  2
LTYPE
  5
5
330
0
100
AcDbSymbolTable
 70
     1
  0
LTYPE
  5
14
330
5
100
AcDbSymbolTableRecord
100
AcDbLinetypeTableRecord
  2
ByBlock
 70
     0
  3

 72
    65
 73
     0
 40
0.0
  0
LTYPE
  5
15
330
5
100
AcDbSymbolTableRecord
100
AcDbLinetypeTableRecord
  2
ByLayer
 70
     0
  3

 72
    65
 73
     0
 40
0.0
  0
LTYPE
  5
16
330
5
100
AcDbSymbolTableRecord
100
AcDbLinetypeTableRecord
  2
Continuous
 70
     0
  3
Solid line
 72
    65
 73
     0
 40
0.0
  0
ENDTAB
  0
TABLE
  2
LAYER
  5
2
330
0
100
AcDbSymbolTable
 70
     3
  0
LAYER
  5
10
330
2
100
AcDbSymbolTableRecord
100
AcDbLayerTableRecord
  2
0
 70
     0
 62
     7
  6
Continuous
370
    -3
390
F
  0
LAYER
  5
77
330
2
100
AcDbSymbolTableRecord
100
AcDbLayerTableRecord
  2
fluid
 70
     0
 62
     4
  6
Continuous
370
    -3
390
F
1001
AcAecLayerStandard
1000

1000

  0
LAYER
  5
95
330
2
100
AcDbSymbolTableRecord
100
AcDbLayerTableRecord
  2
insets
 70
     0
 62
    30
  6
Continuous
370
    -3
390
F
1001
AcAecLayerStandard
1000

1000

  0
ENDTAB
  0
TABLE
  2
STYLE
  5
3
330
0
100
AcDbSymbolTable
 70
     1
  0
STYLE
  5
11
330
3
100
AcDbSymbolTableRecord
100
AcDbTextStyleTableRecord
  2
Standard
 70
     0
 40
0.0
 41
1.0
 50
0.0
 71
     0
 42
2.5
  3
txt
  4

  0
ENDTAB
  0
TABLE
  2
VIEW
  5
6
330
0
100
AcDbSymbolTable
 70
     0
  0
ENDTAB
  0
TABLE
  2
UCS
  5
7
330
0
100
AcDbSymbolTable
 70
     0
  0
ENDTAB
  0
TABLE
  2
APPID
  5
9
330
0
100
AcDbSymbolTable
 70
     2
  0
APPID
  5
12
330
9
100
AcDbSymbolTableRecord
100
AcDbRegAppTableRecord
  2
ACAD
 70
     0
  0
APPID
  5
79
330
9
100
AcDbSymbolTableRecord
100
AcDbRegAppTableRecord
  2
AcAecLayerStandard
 70
     0
  0
ENDTAB
  0
TABLE
  2
DIMSTYLE
  5
A
330
0
100
AcDbSymbolTable
 70
     1
100
AcDbDimStyleTable
  0
DIMSTYLE
105
27
330
A
100
AcDbSymbolTableRecord
100
AcDbDimStyleTableRecord
  2
ISO-25
 70
     0
 41
2.5
 42
0.625
 43
3.75
 44
1.25
 73
     0
 74
     0
 77
     1
 78
     8
140
2.5
141
2.5
143
0.03937007874016
147
0.625
171
     3
172
     1
178
     0
271
     2
272
     2
274
     3
278
    44
283
     0
284
     8
340
11
  0
ENDTAB
  0
TABLE
  2
BLOCK_RECORD
  5
1
330
0
100
AcDbSymbolTable
 70
     1
  0
BLOCK_RECORD
  5
1F
330
1
100
AcDbSymbolTableRecord
100
AcDbBlockTableRecord
  2
*Model_Space
340
22
  0
BLOCK_RECORD
  5
1B
330
1
100
AcDbSymbolTableRecord
100
AcDbBlockTableRecord
  2
*Paper_Space
340
1E
  0
BLOCK_RECORD
  5
23
330
1
100
AcDbSymbolTableRecord
100
AcDbBlockTableRecord
  2
*Paper_Space0
340
26
  0
ENDTAB
  0
ENDSEC
  0
SECTION
  2
BLOCKS
  0
BLOCK
  5
20
330
1F
100
AcDbEntity
  8
0
100
AcDbBlockBegin
  2
*Model_Space
 70
     0
 10
0.0
 20
0.0
 30
0.0
  3
*Model_Space
  1

  0
ENDBLK
  5
21
330
1F
100
AcDbEntity
  8
0
100
AcDbBlockEnd
  0
BLOCK
  5
1C
330
1B
100
AcDbEntity
 67
     1
  8
0
100
AcDbBlockBegin
  2
*Paper_Space
 70
     0
 10
0.0
 20
0.0
 30
0.0
  3
*Paper_Space
  1

  0
ENDBLK
  5
1D
330
1B
100
AcDbEntity
 67
     1
  8
0
100
AcDbBlockEnd
  0
BLOCK
  5
24
330
23
100
AcDbEntity
  8
0
100
AcDbBlockBegin
  2
*Paper_Space0
 70
     0
 10
0.0
 20
0.0
 30
0.0
  3
*Paper_Space0
  1

  0
ENDBLK
  5
25
330
23
100
AcDbEntity
  8
0
100
AcDbBlockEnd
  0
ENDSEC
  0
SECTION
  2
ENTITIES
  0
CIRCLE
  5
76
330
1F
100
AcDbEntity
  8
fluid
 62
   250
100
AcDbCircle
 10
5909.063294604854
 20
8112.265878654445
 30
0.0
 40
8.0
  0
CIRCLE
  5
7B
330
1F
100
AcDbEntity
  8
fluid
 62
   250
100
AcDbCircle
 10
5979.063294604854
 20
8112.265878654445
 30
0.0
 40
8.0
  0
CIRCLE
  5
7C
330
1F
100
AcDbEntity
  8
fluid
 62
   250
100
AcDbCircle
 10
6049.063294604854
 20
8112.265878654445
 30
0.0
 40
8.0
  0
CIRCLE
  5
7D
330
1F
100
AcDbEntity
  8
fluid
 62
   250
100
AcDbCircle
 10
6119.063294604854
 20
8112.265878654445
 30
0.0
 40
8.0
  0
CIRCLE
  5
7E
330
1F
100
AcDbEntity
  8
fluid
 62
   250
100
AcDbCircle
 10
6154.063294604854
 20
8172.265878654445
 30
0.0
 40
8.0
  0
CIRCLE
  5
7F
330
1F
100
AcDbEntity
  8
fluid
 62
   250
100
AcDbCircle
 10
6084.063294604854
 20
8172.265878654445
 30
0.0
 40
8.0
  0
CIRCLE
  5
80
330
1F
100
AcDbEntity
  8
fluid
 62
   250
100
AcDbCircle
 10
6014.063294604854
 20
8172.265878654445
 30
0.0
 40
8.0
  0
CIRCLE
  5
81
330
1F
100
AcDbEntity
  8
fluid
 62
   250
100
AcDbCircle
 10
5944.063294604854
 20
8172.265878654445
 30
0.0
 40
8.0
  0
CIRCLE
  5
82
330
1F
100
AcDbEntity
  8
fluid
 62
   250
100
AcDbCircle
 10
5874.063294604854
 20
8172.265878654445
 30
0.0
 40
8.0
  0
CIRCLE
  5
83
330
1F
100
AcDbEntity
  8
fluid
 62
   250
100
AcDbCircle
 10
6119.063294604854
 20
8232.265878654445
 30
0.0
 40
8.0
  0
CIRCLE
  5
84
330
1F
100
AcDbEntity
  8
fluid
 62
   250
100
AcDbCircle
 10
6189.063294604854
 20
8232.265878654445
 30
0.0
 40
8.0
  0
CIRCLE
  5
85
330
1F
100
AcDbEntity
  8
fluid
 62
   250
100
AcDbCircle
 10
6224.063294604854
 20
8292.265878654445
 30
0.0
 40
8.0
  0
CIRCLE
  5
86
330
1F
100
AcDbEntity
  8
fluid
 62
   250
100
AcDbCircle
 10
6154.063294604854
 20
8292.265878654445
 30
0.0
 40
8.0
  0
CIRCLE
  5
87
330
1F
100
AcDbEntity
  8
fluid
 62
   250
100
AcDbCircle
 10
6084.063294604854
 20
8292.265878654445
 30
0.0
 40
8.0
  0
CIRCLE
  5
88
330
1F
100
AcDbEntity
  8
fluid
 62
   250
100
AcDbCircle
 10
6049.063294604854
 20
8232.265878654445
 30
0.0
 40
8.0
  0
CIRCLE
  5
89
330
1F
100
AcDbEntity
  8
fluid
 62
   250
100
AcDbCircle
 10
5979.063294604854
 20
8232.265878654445
 30
0.0
 40
8.0
  0
CIRCLE
  5
8A
330
1F
100
AcDbEntity
  8
fluid
 62
   250
100
AcDbCircle
 10
5909.063294604854
 20
8232.265878654445
 30
0.0
 40
8.0
  0
CIRCLE
  5
8B
330
1F
100
AcDbEntity
  8
fluid
 62
   250
100
AcDbCircle
 10
5839.063294604854
 20
8232.265878654445
 30
0.0
 40
8.0
  0
CIRCLE
  5
8C
330
1F
100
AcDbEntity
  8
fluid
 62
   250
100
AcDbCircle
 10
6014.063294604854
 20
8292.265878654445
 30
0.0
 40
8.0
  0
CIRCLE
  5
8D
330
1F
100
AcDbEntity
  8
fluid
 62
   250
100
AcDbCircle
 10
5944.063294604854
 20
8292.265878654445
 30
0.0
 40
8.0
  0
CIRCLE
  5
8E
330
1F
100
AcDbEntity
  8
fluid
 62
   250
100
AcDbCircle
 10
5874.063294604854
 20
8292.265878654445
 30
0.0
 40
8.0
  0
CIRCLE
  5
8F
330
1F
100
AcDbEntity
  8
fluid
 62
   250
100
AcDbCircle
 10
5804.063294604854
 20
8292.265878654445
 30
0.0
 40
8.0
  0
LWPOLYLINE
  5
90
330
1F
100
AcDbEntity
  8
fluid
 62
   250
100
AcDbPolyline
 90
        4
 70
     0
 43
0.0
 10
6296.825337664657
 20
8322.417858978104
 10
6269.063294604854
 20
8297.265878654445
 10
6234.063294604854
 20
8227.265878654445
 10
6145.724099222538
 20
8089.046310918009
  0
LWPOLYLINE
  5
91
330
1F
100
AcDbEntity
  8
fluid
 62
   250
100
AcDbPolyline
 90
        4
 70
     0
 43
0.0
 10
5733.505279601053
 20
8322.417858978104
 10
5759.063294604854
 20
8297.265878654445
 10
5794.063294604854
 20
8227.265878654445
 10
5882.521046833102
 20
8089.046310918009
  0
LWPOLYLINE
  5
92
330
1F
100
AcDbEntity
  8
fluid
 62
   250
100
AcDbPolyline
 90
        2
 70
     0
 43
0.0
 10
6039.063294604854
 20
7057.750843243044
 10
6039.063294604854
 20
7147.750843243044
  0
LWPOLYLINE
  5
93
330
1F
100
AcDbEntity
  8
fluid
 62
   250
100
AcDbPolyline
 90
        2
 70
     0
 43
0.0
 10
5989.063294604854
 20
7057.750843243044
 10
5989.063294604854
 20
7147.750843243044
  0
LWPOLYLINE
  5
94
330
1F
100
AcDbEntity
  8
insets
 62
   250
100
AcDbPolyline
 90
        2
 70
     0
 43
0.0
 10
5920.475430034068
 20
8596.652702414034
 10
5920.475430034068
 20
8782.606796823162
  0
LWPOLYLINE
  5
96
330
1F
100
AcDbEntity
  8
insets
 62
   250
100
AcDbPolyline
 90
        2
 70
     0
 43
0.0
 10
6109.855187231642
 20
8596.652702414034
 10
6109.946534504383
 20
8805.530407227121
  0
LWPOLYLINE
  5
97
330
1F
100
AcDbEntity
  8
insets
 62
   250
100
AcDbPolyline
 90
       14
 70
     0
 43
0.0
 10
6109.946534504383
 20
8805.530407227121
 10
6110.380188642037
 20
8914.355971712863
 10
6108.25324556042
 20
8942.738054693338
 10
6097.855030773175
 20
8969.232273882091
 10
6080.109471295928
 20
8991.484501636249
 10
6056.593337963302
 20
9007.517529867484
 10
6029.396142420792
 20
9015.906753657804
 10
6000.934474845151
 20
9015.906753657804
 10
5973.737279302641
 20
9007.517529867542
 10
5950.221145969783
 20
8991.484501636249
 10
5932.475586492536
 20
8969.232273882091
 10
5922.077371705291
 20
8942.738054693338
 10
5919.950428623906
 20
8914.355971712863
 10
5920.475430034068
 20
8782.606796823162
  0
LWPOLYLINE
  5
98
330
1F
100
AcDbEntity
  8
insets
 62
   250
100
AcDbPolyline
 90
       20
 70
     0
 43
0.0
 10
5920.475430034068
 20
8596.652702414034
 10
5790.473574189436
 20
8405.975000645103
 10
5703.315820364714
 20
8486.845577905664
 10
5643.867262101699
 20
8589.81350125391
 10
5617.41016468775
 20
8705.72961883312
 10
5626.295357332998
 20
8824.294274906755
 10
5669.733351678555
 20
8934.972479470318
 10
5743.864491302953
 20
9027.929988345026
 10
5842.101899131168
 20
9094.907118930085
 10
5955.71675036984
 20
9129.952659248676
 10
6074.61386689587
 20
9129.952659248676
 10
6188.228718134542
 20
9094.907118930085
 10
6286.466125962757
 20
9027.929988345026
 10
6360.597265587156
 20
8934.972479470318
 10
6404.035259932945
 20
8824.294274906755
 10
6412.920452577961
 20
8705.72961883312
 10
6386.463355164011
 20
8589.81350125391
 10
6327.014796900996
 20
8486.845577905664
 10
6239.857043076507
 20
8405.975000645103
 10
6109.855187231642
 20
8596.652702414034
  0
LWPOLYLINE
  5
99
330
1F
100
AcDbEntity
  8
fluid
 62
   250
100
AcDbPolyline
 90
       18
 70
     0
 43
0.0
 10
6296.825337664657
 20
8322.417858978104
 10
6406.081049866942
 20
8423.79234520673
 10
6480.602182954983
 20
8552.866733952902
 10
6513.767207223424
 20
8698.172199342876
 10
6502.629264723942
 20
8846.79771311425
 10
6448.178010525149
 20
8985.537246136064
 10
6355.251677518445
 20
9102.063182051013
 10
6232.107178191622
 20
9186.02168008727
 10
6089.686441720896
 20
9229.952659248676
 10
5940.644175544814
 20
9229.952659248676
 10
5798.223439074089
 20
9186.02168008727
 10
5675.078939747498
 20
9102.063182051013
 10
5582.152606740561
 20
8985.537246136064
 10
5527.701352542001
 20
8846.79771311425
 10
5516.563410042287
 20
8698.172199342876
 10
5549.728434310728
 20
8552.866733952902
 10
5624.249567398769
 20
8423.79234520673
 10
5733.505279601053
 20
8322.417858978104
  0
LWPOLYLINE
  5
9A
330
1F
100
AcDbEntity
  8
fluid
 62
   250
100
AcDbPolyline
 90
        2
 70
     0
 43
0.0
 10
5989.063294604854
 20
7147.750843243044
 10
5882.521046833102
 20
8089.046310918009
  0
LWPOLYLINE
  5
9B
330
1F
100
AcDbEntity
  8
fluid
 62
   250
100
AcDbPolyline
 90
        2
 70
     0
 43
0.0
 10
6039.063294604854
 20
7147.750843243044
 10
6145.724099222538
 20
8089.046310918009
  0
LWPOLYLINE
  5
9C
330
1F
100
AcDbEntity
  8
fluid
 62
   250
100
AcDbPolyline
 90
        2
 70
     0
 43
0.0
 10
5964.063294604854
 20
6832.750843243044
 10
5964.063294604854
 20
6332.750843243044
  0
LWPOLYLINE
  5
9D
330
1F
100
AcDbEntity
  8
fluid
 62
   250
100
AcDbPolyline
 90
        2
 70
     0
 43
0.0
 10
6064.063294604854
 20
6832.750843243044
 10
6064.063294604854
 20
6332.750843243044
  0
LWPOLYLINE
  5
9E
330
1F
100
AcDbEntity
  8
fluid
 62
   250
100
AcDbPolyline
 90
        2
 70
     0
 43
0.0
 10
5989.063294604854
 20
6857.750843243044
 10
5964.063294604854
 20
6832.750843243044
  0
LWPOLYLINE
  5
9F
330
1F
100
AcDbEntity
  8
fluid
 62
   250
100
AcDbPolyline
 90
        2
 70
     0
 43
0.0
 10
6064.063294604854
 20
6832.750843243044
 10
6039.063294604854
 20
6857.750843243044
  0
LWPOLYLINE
  5
A0
330
1F
100
AcDbEntity
  8
fluid
 62
   250
100
AcDbPolyline
 90
        2
 70
     0
 43
0.0
 10
5989.063294604854
 20
7007.750843243044
 10
5989.063294604854
 20
6857.750843243044
  0
LWPOLYLINE
  5
A1
330
1F
100
AcDbEntity
  8
fluid
 62
   250
100
AcDbPolyline
 90
        2
 70
     0
 43
0.0
 10
6039.063294604854
 20
7007.750843243044
 10
6039.063294604854
 20
6857.750843243044
  0
LWPOLYLINE
  5
A2
330
1F
100
AcDbEntity
  8
fluid
 62
   250
100
AcDbPolyline
 90
        2
 70
     0
 43
0.0
 10
5539.063294604854
 20
10657.75084324304
 10
6489.063294604854
 20
10657.75084324304
  0
LWPOLYLINE
  5
A3
330
1F
100
AcDbEntity
  8
fluid
 62
   250
100
AcDbPolyline
 90
        2
 70
     0
 43
0.0
 10
6303.959509261385
 20
10907.75084324304
 10
6304.063294604854
 20
10967.90435072664
  0
LWPOLYLINE
  5
A4
330
1F
100
AcDbEntity
  8
fluid
 62
   250
100
AcDbPolyline
 90
        6
 70
     0
 43
0.0
 10
6304.063294604854
 20
11281.94582437981
 10
6304.063294604854
 20
11107.90435072664
 10
6339.063294604854
 20
11107.90435072664
 10
6339.063294604854
 20
11017.90435072664
 10
6304.063294604854
 20
11017.90435072664
 10
6304.063294604854
 20
10967.90435072664
  0
LWPOLYLINE
  5
A5
330
1F
100
AcDbEntity
  8
fluid
 62
   250
100
AcDbPolyline
 90
        5
 70
     0
 43
0.0
 10
6234.063294604854
 20
11017.90435072664
 10
6284.063294604854
 20
11017.90435072664
 10
6284.063294604854
 20
10967.90435072664
 10
6234.063294604854
 20
10967.90435072664
 10
6234.063294604854
 20
11017.90435072664
  0
LWPOLYLINE
  5
A6
330
1F
100
AcDbEntity
  8
fluid
 62
   250
100
AcDbPolyline
 90
        5
 70
     0
 43
0.0
 10
6164.063294604854
 20
11017.90435072664
 10
6214.063294604854
 20
11017.90435072664
 10
6214.063294604854
 20
10967.90435072664
 10
6164.063294604854
 20
10967.90435072664
 10
6164.063294604854
 20
11017.90435072664
  0
LWPOLYLINE
  5
A7
330
1F
100
AcDbEntity
  8
fluid
 62
   250
100
AcDbPolyline
 90
        5
 70
     0
 43
0.0
 10
6094.063294604854
 20
11017.90435072664
 10
6144.063294604854
 20
11017.90435072664
 10
6144.063294604854
 20
10967.90435072664
 10
6094.063294604854
 20
10967.90435072664
 10
6094.063294604854
 20
11017.90435072664
  0
LWPOLYLINE
  5
A8
330
1F
100
AcDbEntity
  8
fluid
 62
   250
100
AcDbPolyline
 90
        5
 70
     0
 43
0.0
 10
6234.063294604854
 20
11157.90435072664
 10
6284.063294604854
 20
11157.90435072664
 10
6284.063294604854
 20
11107.90435072664
 10
6234.063294604854
 20
11107.90435072664
 10
6234.063294604854
 20
11157.90435072664
  0
LWPOLYLINE
  5
A9
330
1F
100
AcDbEntity
  8
fluid
 62
   250
100
AcDbPolyline
 90
        5
 70
     0
 43
0.0
 10
6164.063294604854
 20
11157.90435072664
 10
6214.063294604854
 20
11157.90435072664
 10
6214.063294604854
 20
11107.90435072664
 10
6164.063294604854
 20
11107.90435072664
 10
6164.063294604854
 20
11157.90435072664
  0
LWPOLYLINE
  5
AA
330
1F
100
AcDbEntity
  8
fluid
 62
   250
100
AcDbPolyline
 90
        5
 70
     0
 43
0.0
 10
6094.063294604854
 20
11157.90435072664
 10
6144.063294604854
 20
11157.90435072664
 10
6144.063294604854
 20
11107.90435072664
 10
6094.063294604854
 20
11107.90435072664
 10
6094.063294604854
 20
11157.90435072664
  0
LWPOLYLINE
  5
AB
330
1F
100
AcDbEntity
  8
fluid
 62
   250
100
AcDbPolyline
 90
        5
 70
     0
 43
0.0
 10
6269.063294604854
 20
11087.90435072664
 10
6319.063294604854
 20
11087.90435072664
 10
6319.063294604854
 20
11037.90435072664
 10
6269.063294604854
 20
11037.90435072664
 10
6269.063294604854
 20
11087.90435072664
  0
LWPOLYLINE
  5
AC
330
1F
100
AcDbEntity
  8
fluid
 62
   250
100
AcDbPolyline
 90
        5
 70
     0
 43
0.0
 10
6199.063294604854
 20
11087.90435072664
 10
6249.063294604854
 20
11087.90435072664
 10
6249.063294604854
 20
11037.90435072664
 10
6199.063294604854
 20
11037.90435072664
 10
6199.063294604854
 20
11087.90435072664
  0
LWPOLYLINE
  5
AD
330
1F
100
AcDbEntity
  8
fluid
 62
   250
100
AcDbPolyline
 90
        5
 70
     0
 43
0.0
 10
6129.063294604854
 20
11087.90435072664
 10
6179.063294604854
 20
11087.90435072664
 10
6179.063294604854
 20
11037.90435072664
 10
6129.063294604854
 20
11037.90435072664
 10
6129.063294604854
 20
11087.90435072664
  0
LWPOLYLINE
  5
AE
330
1F
100
AcDbEntity
  8
fluid
 62
   250
100
AcDbPolyline
 90
        6
 70
     0
 43
0.0
 10
5724.063294604854
 20
11283.76480135404
 10
5724.063294604854
 20
11107.90435072664
 10
5689.063294604854
 20
11107.90435072664
 10
5689.063294604854
 20
11017.90435072664
 10
5724.063294604854
 20
11017.90435072664
 10
5724.063294604854
 20
10967.90435072664
  0
LWPOLYLINE
  5
AF
330
1F
100
AcDbEntity
  8
fluid
 62
   250
100
AcDbPolyline
 90
        5
 70
     0
 43
0.0
 10
6024.063294604854
 20
11017.90435072664
 10
6074.063294604854
 20
11017.90435072664
 10
6074.063294604854
 20
10967.90435072664
 10
6024.063294604854
 20
10967.90435072664
 10
6024.063294604854
 20
11017.90435072664
  0
LWPOLYLINE
  5
B0
330
1F
100
AcDbEntity
  8
fluid
 62
   250
100
AcDbPolyline
 90
        5
 70
     0
 43
0.0
 10
5954.063294604854
 20
11017.90435072664
 10
6004.063294604854
 20
11017.90435072664
 10
6004.063294604854
 20
10967.90435072664
 10
5954.063294604854
 20
10967.90435072664
 10
5954.063294604854
 20
11017.90435072664
  0
LWPOLYLINE
  5
B1
330
1F
100
AcDbEntity
  8
fluid
 62
   250
100
AcDbPolyline
 90
        5
 70
     0
 43
0.0
 10
5884.063294604854
 20
11017.90435072664
 10
5934.063294604854
 20
11017.90435072664
 10
5934.063294604854
 20
10967.90435072664
 10
5884.063294604854
 20
10967.90435072664
 10
5884.063294604854
 20
11017.90435072664
  0
LWPOLYLINE
  5
B2
330
1F
100
AcDbEntity
  8
fluid
 62
   250
100
AcDbPolyline
 90
        5
 70
     0
 43
0.0
 10
5814.063294604854
 20
11017.90435072664
 10
5864.063294604854
 20
11017.90435072664
 10
5864.063294604854
 20
10967.90435072664
 10
5814.063294604854
 20
10967.90435072664
 10
5814.063294604854
 20
11017.90435072664
  0
LWPOLYLINE
  5
B3
330
1F
100
AcDbEntity
  8
fluid
 62
   250
100
AcDbPolyline
 90
        5
 70
     0
 43
0.0
 10
5744.063294604854
 20
11017.90435072664
 10
5794.063294604854
 20
11017.90435072664
 10
5794.063294604854
 20
10967.90435072664
 10
5744.063294604854
 20
10967.90435072664
 10
5744.063294604854
 20
11017.90435072664
  0
LWPOLYLINE
  5
B4
330
1F
100
AcDbEntity
  8
fluid
 62
   250
100
AcDbPolyline
 90
        5
 70
     0
 43
0.0
 10
6024.063294604854
 20
11157.90435072664
 10
6074.063294604854
 20
11157.90435072664
 10
6074.063294604854
 20
11107.90435072664
 10
6024.063294604854
 20
11107.90435072664
 10
6024.063294604854
 20
11157.90435072664
  0
LWPOLYLINE
  5
B5
330
1F
100
AcDbEntity
  8
fluid
 62
   250
100
AcDbPolyline
 90
        5
 70
     0
 43
0.0
 10
5954.063294604854
 20
11157.90435072664
 10
6004.063294604854
 20
11157.90435072664
 10
6004.063294604854
 20
11107.90435072664
 10
5954.063294604854
 20
11107.90435072664
 10
5954.063294604854
 20
11157.90435072664
  0
LWPOLYLINE
  5
B6
330
1F
100
AcDbEntity
  8
fluid
 62
   250
100
AcDbPolyline
 90
        5
 70
     0
 43
0.0
 10
5884.063294604854
 20
11157.90435072664
 10
5934.063294604854
 20
11157.90435072664
 10
5934.063294604854
 20
11107.90435072664
 10
5884.063294604854
 20
11107.90435072664
 10
5884.063294604854
 20
11157.90435072664
  0
LWPOLYLINE
  5
B7
330
1F
100
AcDbEntity
  8
fluid
 62
   250
100
AcDbPolyline
 90
        5
 70
     0
 43
0.0
 10
5814.063294604854
 20
11157.90435072664
 10
5864.063294604854
 20
11157.90435072664
 10
5864.063294604854
 20
11107.90435072664
 10
5814.063294604854
 20
11107.90435072664
 10
5814.063294604854
 20
11157.90435072664
  0
LWPOLYLINE
  5
B8
330
1F
100
AcDbEntity
  8
fluid
 62
   250
100
AcDbPolyline
 90
        5
 70
     0
 43
0.0
 10
5744.063294604854
 20
11157.90435072664
 10
5794.063294604854
 20
11157.90435072664
 10
5794.063294604854
 20
11107.90435072664
 10
5744.063294604854
 20
11107.90435072664
 10
5744.063294604854
 20
11157.90435072664
  0
LWPOLYLINE
  5
B9
330
1F
100
AcDbEntity
  8
fluid
 62
   250
100
AcDbPolyline
 90
        5
 70
     0
 43
0.0
 10
6059.063294604854
 20
11087.90435072664
 10
6109.063294604854
 20
11087.90435072664
 10
6109.063294604854
 20
11037.90435072664
 10
6059.063294604854
 20
11037.90435072664
 10
6059.063294604854
 20
11087.90435072664
  0
LWPOLYLINE
  5
BA
330
1F
100
AcDbEntity
  8
fluid
 62
   250
100
AcDbPolyline
 90
        5
 70
     0
 43
0.0
 10
5989.063294604854
 20
11087.90435072664
 10
6039.063294604854
 20
11087.90435072664
 10
6039.063294604854
 20
11037.90435072664
 10
5989.063294604854
 20
11037.90435072664
 10
5989.063294604854
 20
11087.90435072664
  0
LWPOLYLINE
  5
BB
330
1F
100
AcDbEntity
  8
fluid
 62
   250
100
AcDbPolyline
 90
        5
 70
     0
 43
0.0
 10
5919.063294604854
 20
11087.90435072664
 10
5969.063294604854
 20
11087.90435072664
 10
5969.063294604854
 20
11037.90435072664
 10
5919.063294604854
 20
11037.90435072664
 10
5919.063294604854
 20
11087.90435072664
  0
LWPOLYLINE
  5
BC
330
1F
100
AcDbEntity
  8
fluid
 62
   250
100
AcDbPolyline
 90
        5
 70
     0
 43
0.0
 10
5849.063294604854
 20
11087.90435072664
 10
5899.063294604854
 20
11087.90435072664
 10
5899.063294604854
 20
11037.90435072664
 10
5849.063294604854
 20
11037.90435072664
 10
5849.063294604854
 20
11087.90435072664
  0
LWPOLYLINE
  5
BD
330
1F
100
AcDbEntity
  8
fluid
 62
   250
100
AcDbPolyline
 90
        5
 70
     0
 43
0.0
 10
5779.063294604854
 20
11087.90435072664
 10
5829.063294604854
 20
11087.90435072664
 10
5829.063294604854
 20
11037.90435072664
 10
5779.063294604854
 20
11037.90435072664
 10
5779.063294604854
 20
11087.90435072664
  0
LWPOLYLINE
  5
BE
330
1F
100
AcDbEntity
  8
fluid
 62
   250
100
AcDbPolyline
 90
        5
 70
     0
 43
0.0
 10
5709.063294604854
 20
11087.90435072664
 10
5759.063294604854
 20
11087.90435072664
 10
5759.063294604854
 20
11037.90435072664
 10
5709.063294604854
 20
11037.90435072664
 10
5709.063294604854
 20
11087.90435072664
  0
LWPOLYLINE
  5
BF
330
1F
100
AcDbEntity
  8
fluid
 62
   250
100
AcDbPolyline
 90
        2
 70
     0
 43
0.0
 10
5724.063294604854
 20
10907.75084324304
 10
5724.063294604854
 20
10967.90435072664
  0
LWPOLYLINE
  5
C0
330
1F
100
AcDbEntity
  8
insets
 62
   250
100
AcDbPolyline
 90
        2
 70
     0
 43
0.0
 10
5921.302149566323
 20
11546.65270241409
 10
5921.302149566323
 20
11732.60679682316
  0
LWPOLYLINE
  5
C1
330
1F
100
AcDbEntity
  8
insets
 62
   250
100
AcDbPolyline
 90
        2
 70
     0
 43
0.0
 10
6110.681906763897
 20
11546.65270241409
 10
6110.773254036405
 20
11755.53040722712
  0
LWPOLYLINE
  5
C2
330
1F
100
AcDbEntity
  8
insets
 62
   250
100
AcDbPolyline
 90
       14
 70
     0
 43
0.0
 10
6110.773254036405
 20
11755.53040722712
 10
6111.206908174292
 20
11864.35597171286
 10
6109.079965092675
 20
11892.73805469334
 10
6098.68175030543
 20
11919.23227388209
 10
6080.936190828183
 20
11941.48450163625
 10
6057.420057495558
 20
11957.51752986748
 10
6030.222861953047
 20
11965.90675365786
 10
6001.761194377174
 20
11965.90675365786
 10
5974.563998834663
 20
11957.51752986754
 10
5951.047865502038
 20
11941.48450163625
 10
5933.302306024791
 20
11919.23227388209
 10
5922.904091237546
 20
11892.73805469334
 10
5920.777148155928
 20
11864.35597171286
 10
5921.302149566323
 20
11732.60679682316
  0
LWPOLYLINE
  5
C3
330
1F
100
AcDbEntity
  8
insets
 62
   250
100
AcDbPolyline
 90
       20
 70
     0
 43
0.0
 10
5921.302149566323
 20
11546.65270241409
 10
5791.300293721692
 20
11355.9750006451
 10
5704.14253989697
 20
11436.84557790566
 10
5644.693981633955
 20
11539.81350125391
 10
5618.236884220005
 20
11655.72961883306
 10
5627.12207686502
 20
11774.29427490676
 10
5670.56007121081
 20
11884.97247947032
 10
5744.691210835208
 20
11977.92998834503
 10
5842.928618663424
 20
12044.90711893008
 10
5956.543469902095
 20
12079.95265924868
 10
6075.440586428125
 20
12079.95265924868
 10
6189.055437666797
 20
12044.90711893008
 10
6287.292845495012
 20
11977.92998834503
 10
6361.423985119411
 20
11884.97247947032
 10
6404.861979464968
 20
11774.29427490676
 10
6413.747172110216
 20
11655.72961883306
 10
6387.290074696266
 20
11539.81350125391
 10
6327.841516433251
 20
11436.84557790566
 10
6240.683762608529
 20
11355.9750006451
 10
6110.681906763897
 20
11546.65270241409
  0
LWPOLYLINE
  5
C4
330
1F
100
AcDbEntity
  8
fluid
 62
   250
100
AcDbPolyline
 90
       18
 70
     0
 43
0.0
 10
6304.063294604854
 20
11281.94582437981
 10
6406.907769399197
 20
11373.79234520673
 10
6481.428902487238
 20
11502.86673395296
 10
6514.593926755679
 20
11648.17219934288
 10
6503.455984255965
 20
11796.79771311425
 10
6449.004730057404
 20
11935.53724613606
 10
6356.078397050467
 20
12052.06318205101
 10
6232.933897723877
 20
12136.02168008727
 10
6090.513161253151
 20
12179.95265924868
 10
5941.470895077069
 20
12179.95265924868
 10
5799.050158606344
 20
12136.02168008727
 10
5675.905659279753
 20
12052.06318205101
 10
5582.979326272816
 20
11935.53724613606
 10
5528.528072074023
 20
11796.79771311425
 10
5517.390129574542
 20
11648.17219934288
 10
5550.555153842983
 20
11502.86673395296
 10
5625.076286931024
 20
11373.79234520673
 10
5724.063294604854
 20
11283.76480135404
  0
LWPOLYLINE
  5
C5
330
1F
100
AcDbEntity
  8
fluid
 62
   250
100
AcDbPolyline
 90
        2
 70
     0
 43
0.0
 10
5764.063294604854
 20
3807.750843243045
 10
5964.063294604854
 20
6332.750843243044
  0
LWPOLYLINE
  5
C6
330
1F
100
AcDbEntity
  8
fluid
 62
   250
100
AcDbPolyline
 90
        2
 70
     0
 43
0.0
 10
6264.063294604854
 20
3807.750843243045
 10
6064.063294604854
 20
6332.750843243044
  0
LWPOLYLINE
  5
C7
330
1F
100
AcDbEntity
  8
fluid
 62
   250
100
AcDbPolyline
 90
        3
 70
     0
 43
0.0
 10
6039.063294604854
 20
7007.750843243044
 10
6129.063294604854
 20
7007.750843243044
 10
6489.063294604854
 20
6907.750843243044
  0
LWPOLYLINE
  5
C8
330
1F
100
AcDbEntity
  8
fluid
 62
   250
100
AcDbPolyline
 90
        3
 70
     0
 43
0.0
 10
6039.063294604854
 20
7057.750843243044
 10
6129.063294604854
 20
7057.750843243044
 10
6489.063294604854
 20
7157.750843243044
  0
LWPOLYLINE
  5
C9
330
1F
100
AcDbEntity
  8
fluid
 62
   250
100
AcDbPolyline
 90
        3
 70
     0
 43
0.0
 10
5989.063294604854
 20
7057.750843243044
 10
5899.063294604854
 20
7057.750843243044
 10
5539.063294604854
 20
7157.750843243044
  0
LWPOLYLINE
  5
CA
330
1F
100
AcDbEntity
  8
fluid
 62
   250
100
AcDbPolyline
 90
        3
 70
     0
 43
0.0
 10
5989.063294604854
 20
7007.750843243044
 10
5899.063294604854
 20
7007.750843243015
 10
5539.063294604854
 20
6907.750843243044
  0
TEXT
  5
CB
330
1F
100
AcDbEntity
  8
fluid
 62
   250
100
AcDbText
 10
1032.586465638099
 20
835.549027237354
 30
0.0
 40
734.2803532077291
  1
50µm
100
AcDbText
  0
LWPOLYLINE
  5
CD
330
1F
100
AcDbEntity
  8
fluid
 62
   250
100
AcDbPolyline
 90
        2
 70
     0
 43
0.0
 10
4039.063294604854
 20
10554.19745264978
 10
4039.063294604854
 20
7261.304233836312
  0
LWPOLYLINE
  5
CE
330
1F
100
AcDbEntity
  8
fluid
 62
   250
100
AcDbPolyline
 90
        2
 70
     0
 43
0.0
 10
3789.063294604854
 20
10554.19745264978
 10
3789.063294604854
 20
7261.304233836312
  0
LWPOLYLINE
  5
CF
330
1F
100
AcDbEntity
  8
fluid
 62
   250
100
AcDbPolyline
 90
        4
 70
     0
 43
0.0
 10
5039.063294604854
 20
10657.75084324304
 10
4142.616685198122
 20
10657.75084324304
 10
4039.063294604854
 20
10657.75084324304
 10
4039.063294604854
 20
10554.19745264978
  0
LWPOLYLINE
  5
D0
330
1F
100
AcDbEntity
  8
fluid
 62
   250
100
AcDbPolyline
 90
        5
 70
     0
 43
0.0
 10
5039.063294604854
 20
10907.75084324304
 10
4142.616685198122
 20
10907.75084324304
 10
3935.509904011586
 20
10907.75084324304
 10
3789.063294604854
 20
10761.30423383631
 10
3789.063294604854
 20
10554.19745264978
  0
LWPOLYLINE
  5
D1
330
1F
100
AcDbEntity
  8
fluid
 62
   250
100
AcDbPolyline
 90
        4
 70
     0
 43
0.0
 10
5039.063294604854
 20
7157.750843243044
 10
4142.616685198122
 20
7157.750843243044
 10
4039.063294604854
 20
7157.750843243044
 10
4039.063294604854
 20
7261.304233836312
  0
LWPOLYLINE
  5
D2
330
1F
100
AcDbEntity
  8
fluid
 62
   250
100
AcDbPolyline
 90
        5
 70
     0
 43
0.0
 10
5039.063294604854
 20
6907.750843243044
 10
4142.616685198122
 20
6907.750843243044
 10
3935.509904011586
 20
6907.750843243044
 10
3789.063294604854
 20
7054.197452649776
 10
3789.063294604854
 20
7261.304233836312
  0
LWPOLYLINE
  5
D3
330
1F
100
AcDbEntity
  8
fluid
 62
   250
100
AcDbPolyline
 90
        2
 70
     0
 43
0.0
 10
7989.063294604854
 20
10554.19745264978
 10
7989.063294604854
 20
7261.304233836312
  0
LWPOLYLINE
  5
D4
330
1F
100
AcDbEntity
  8
fluid
 62
   250
100
AcDbPolyline
 90
        2
 70
     0
 43
0.0
 10
8239.063294604854
 20
10554.19745264978
 10
8239.063294604854
 20
7261.304233836312
  0
LWPOLYLINE
  5
D5
330
1F
100
AcDbEntity
  8
fluid
 62
   250
100
AcDbPolyline
 90
        4
 70
     0
 43
0.0
 10
6989.063294604854
 20
10657.75084324304
 10
7885.509904011586
 20
10657.75084324304
 10
7989.063294604854
 20
10657.75084324304
 10
7989.063294604854
 20
10554.19745264978
  0
LWPOLYLINE
  5
D6
330
1F
100
AcDbEntity
  8
fluid
 62
   250
100
AcDbPolyline
 90
        5
 70
     0
 43
0.0
 10
6989.063294604854
 20
10907.75084324304
 10
7885.509904011586
 20
10907.75084324304
 10
8092.616685198122
 20
10907.75084324304
 10
8239.063294604854
 20
10761.30423383631
 10
8239.063294604854
 20
10554.19745264978
  0
LWPOLYLINE
  5
D7
330
1F
100
AcDbEntity
  8
fluid
 62
   250
100
AcDbPolyline
 90
        4
 70
     0
 43
0.0
 10
6989.063294604854
 20
7157.750843243044
 10
7885.509904011586
 20
7157.750843243044
 10
7989.063294604854
 20
7157.750843243044
 10
7989.063294604854
 20
7261.304233836312
  0
LWPOLYLINE
  5
D8
330
1F
100
AcDbEntity
  8
fluid
 62
   250
100
AcDbPolyline
 90
        5
 70
     0
 43
0.0
 10
6989.063294604854
 20
6907.750843243044
 10
7885.509904011586
 20
6907.750843243044
 10
8092.616685198122
 20
6907.750843243044
 10
8239.063294604854
 20
7054.197452649776
 10
8239.063294604854
 20
7261.304233836312
  0
LWPOLYLINE
  5
D9
330
1F
100
AcDbEntity
  8
fluid
 62
   250
100
AcDbPolyline
 90
        4
 70
     1
 43
0.0
 10
11961.26511061049
 20
14929.95265924868
 10
66.86147859922175
 20
14929.95265924868
 10
66.86147859922175
 20
85.54902723735404
 10
11961.26511061049
 20
85.54902723735404
  0
LWPOLYLINE
  5
DA
330
1F
100
AcDbEntity
  8
fluid
 62
   250
100
AcDbPolyline
 90
        5
 70
     0
 43
0.0
 10
11711.26511061049
 20
14679.95265924868
 10
316.8614785992218
 20
14679.95265924868
 10
316.8614785992218
 20
335.549027237354
 10
11711.26511061049
 20
335.549027237354
 10
11711.26511061049
 20
14679.95265924868
  0
LWPOLYLINE
  5
DB
330
1F
100
AcDbEntity
  8
fluid
 62
   250
100
AcDbPolyline
 90
        2
 70
     0
 43
0.0
 10
5539.063294604854
 20
6907.750843243044
 10
5039.063294604854
 20
6907.750843243044
  0
LWPOLYLINE
  5
DC
330
1F
100
AcDbEntity
  8
fluid
 62
   250
100
AcDbPolyline
 90
        2
 70
     0
 43
0.0
 10
5539.063294604854
 20
7157.750843243044
 10
5039.063294604854
 20
7157.750843243044
  0
LWPOLYLINE
  5
DD
330
1F
100
AcDbEntity
  8
fluid
 62
   250
100
AcDbPolyline
 90
        2
 70
     0
 43
0.0
 10
6294.621309608654
 20
3743.083827507926
 10
6264.063294604854
 20
3807.750843243045
  0
LWPOLYLINE
  5
DE
330
1F
100
AcDbEntity
  8
fluid
 62
   250
100
AcDbPolyline
 90
        2
 70
     0
 43
0.0
 10
5731.30125154505
 20
3743.083827507926
 10
5764.063294604854
 20
3807.750843243045
  0
LWPOLYLINE
  5
DF
330
1F
100
AcDbEntity
  8
insets
 62
   250
100
AcDbPolyline
 90
        2
 70
     0
 43
0.0
 10
6107.651159175639
 20
3468.848984071996
 10
6107.651159175639
 20
3282.894889662869
  0
LWPOLYLINE
  5
E0
330
1F
100
AcDbEntity
  8
insets
 62
   250
100
AcDbPolyline
 90
        2
 70
     0
 43
0.0
 10
5918.271401978065
 20
3468.848984071996
 10
5918.180054705557
 20
3259.971279258909
  0
LWPOLYLINE
  5
E1
330
1F
100
AcDbEntity
  8
insets
 62
   250
100
AcDbPolyline
 90
       14
 70
     0
 43
0.0
 10
5918.180054705557
 20
3259.971279258909
 10
5917.74640056767
 20
3151.145714773168
 10
5919.873343649288
 20
3122.763631792692
 10
5930.271558436532
 20
3096.269412603939
 10
5948.01711791378
 20
3074.017184849782
 10
5971.533251246405
 20
3057.984156618546
 10
5998.730446788915
 20
3049.594932828285
 10
6027.192114364789
 20
3049.594932828285
 10
6054.389309907299
 20
3057.984156618546
 10
6077.905443239924
 20
3074.017184849782
 10
6095.651002717172
 20
3096.269412603939
 10
6106.049217504416
 20
3122.763631792692
 10
6108.176160586034
 20
3151.145714773168
 10
6107.651159175639
 20
3282.894889662869
  0
LWPOLYLINE
  5
E2
330
1F
100
AcDbEntity
  8
insets
 62
   250
100
AcDbPolyline
 90
       20
 70
     0
 43
0.0
 10
6107.651159175639
 20
3468.848984071996
 10
6237.653015020271
 20
3659.526685840927
 10
6324.810768844993
 20
3578.656108580366
 10
6384.259327108008
 20
3475.688185232121
 10
6410.716424521957
 20
3359.772067652968
 10
6401.831231876942
 20
3241.207411579275
 10
6358.393237531152
 20
3130.529207015712
 10
6284.262097906754
 20
3037.571698141005
 10
6186.024690078539
 20
2970.594567555946
 10
6072.409838839867
 20
2935.549027237354
 10
5953.512722313837
 20
2935.549027237354
 10
5839.897871075165
 20
2970.594567555946
 10
5741.66046324695
 20
3037.571698141005
 10
5667.529323622552
 20
3130.529207015712
 10
5624.091329276762
 20
3241.207411579275
 10
5615.206136631747
 20
3359.772067652968
 10
5641.663234045696
 20
3475.688185232121
 10
5701.111792308711
 20
3578.656108580366
 10
5788.269546133433
 20
3659.526685840927
 10
5918.271401978065
 20
3468.848984071996
  0
LWPOLYLINE
  5
E3
330
1F
100
AcDbEntity
  8
fluid
 62
   250
100
AcDbPolyline
 90
       18
 70
     0
 43
0.0
 10
5731.30125154505
 20
3743.083827507926
 10
5622.045539342766
 20
3641.709341279301
 10
5547.524406254724
 20
3512.634952533128
 10
5514.359381986284
 20
3367.329487143154
 10
5525.497324485765
 20
3218.70397337178
 10
5579.948578684558
 20
3079.964440349966
 10
5672.874911691495
 20
2963.438504435017
 10
5796.019411018086
 20
2879.480006398761
 10
5938.440147488811
 20
2835.549027237354
 10
6087.482413664893
 20
2835.549027237354
 10
6229.903150135618
 20
2879.480006398761
 10
6353.047649462209
 20
2963.438504435017
 10
6445.973982469146
 20
3079.964440349966
 10
6500.425236667706
 20
3218.70397337178
 10
6511.56317916742
 20
3367.329487143154
 10
6478.39815489898
 20
3512.634952533128
 10
6403.877021810938
 20
3641.709341279301
 10
6294.621309608654
 20
3743.083827507926
  0
LWPOLYLINE
  5
E4
330
1F
100
AcDbEntity
  8
fluid
 62
   250
100
AcDbPolyline
 90
        2
 70
     0
 43
0.0
 10
6489.063294604854
 20
7157.750843243044
 10
6989.063294604854
 20
7157.750843243044
  0
LWPOLYLINE
  5
E5
330
1F
100
AcDbEntity
  8
fluid
 62
   250
100
AcDbPolyline
 90
        2
 70
     0
 43
0.0
 10
6489.063294604854
 20
6907.750843243044
 10
6989.063294604854
 20
6907.750843243044
  0
LWPOLYLINE
  5
E6
330
1F
100
AcDbEntity
  8
fluid
 62
   250
100
AcDbPolyline
 90
        2
 70
     0
 43
0.0
 10
5539.063294604854
 20
10657.75084324304
 10
5039.063294604854
 20
10657.75084324304
  0
LWPOLYLINE
  5
E7
330
1F
100
AcDbEntity
  8
fluid
 62
   250
100
AcDbPolyline
 90
        2
 70
     0
 43
0.0
 10
5724.063294604854
 20
10907.75084324304
 10
5039.063294604854
 20
10907.75084324304
  0
LWPOLYLINE
  5
E8
330
1F
100
AcDbEntity
  8
fluid
 62
   250
100
AcDbPolyline
 90
        2
 70
     0
 43
0.0
 10
6303.959509261385
 20
10907.75084324304
 10
6989.063294604854
 20
10907.75084324304
  0
LWPOLYLINE
  5
E9
330
1F
100
AcDbEntity
  8
fluid
 62
   250
100
AcDbPolyline
 90
        2
 70
     0
 43
0.0
 10
6489.063294604854
 20
10657.75084324304
 10
6989.063294604854
 20
10657.75084324304
  0
ENDSEC
  0
SECTION
  2
OBJECTS
  0
DICTIONARY
  5
C
330
0
100
AcDbDictionary
281
     1
  3
ACAD_GROUP
350
D
  3
ACAD_IMAGE_VARS
350
6A
  3
ACAD_LAYOUT
350
1A
  3
ACAD_MLINESTYLE
350
17
  3
ACAD_PLOTSETTINGS
350
19
  3
ACAD_PLOTSTYLENAME
350
E
  3
ACAD_SCALELIST
350
40
  3
AcDbVariableDictionary
350
3D
  3
APPDATA
350
71
  0
DICTIONARY
  5
D
102
{ACAD_REACTORS
330
C
102
}
330
C
100
AcDbDictionary
281
     1
  0
RASTERVARIABLES
  5
6A
102
{ACAD_REACTORS
330
C
102
}
330
C
100
AcDbRasterVariables
 90
        0
 70
     1
 71
     1
 72
     1
  0
DICTIONARY
  5
1A
102
{ACAD_REACTORS
330
C
102
}
330
C
100
AcDbDictionary
281
     1
  3
Model
350
22
  3
Sheet1
350
1E
  3
Sheet2
350
26
  0
DICTIONARY
  5
17
102
{ACAD_REACTORS
330
C
102
}
330
C
100
AcDbDictionary
281
     1
  3
Standard
350
18
  0
DICTIONARY
  5
19
102
{ACAD_REACTORS
330
C
102
}
330
C
100
AcDbDictionary
281
     1
  0
ACDBDICTIONARYWDFLT
  5
E
102
{ACAD_REACTORS
330
C
102
}
330
C
100
AcDbDictionary
281
     1
  3
Normal
350
F
100
AcDbDictionaryWithDefault
340
F
  0
DICTIONARY
  5
40
102
{ACAD_REACTORS
330
C
102
}
330
C
100
AcDbDictionary
281
     1
  3
A0
350
41
  3
A1
350
42
  3
A2
350
43
  3
A3
350
44
  3
A4
350
45
  3
A5
350
46
  3
A6
350
47
  3
A7
350
48
  3
A8
350
49
  3
A9
350
4A
  3
B0
350
4B
  3
B1
350
4C
  3
B2
350
4D
  3
B3
350
4E
  3
B4
350
4F
  3
B5
350
50
  3
B6
350
51
  3
B7
350
52
  3
B8
350
53
  3
B9
350
54
  3
C0
350
55
  3
C1
350
56
  3
C2
350
57
  3
C3
350
58
  3
C4
350
59
  3
C5
350
5A
  3
C6
350
5B
  3
C7
350
5C
  3
C8
350
5D
  3
C9
350
5E
  3
D0
350
5F
  3
D1
350
60
  3
D2
350
61
  0
DICTIONARY
  5
3D
102
{ACAD_REACTORS
330
C
102
}
330
C
100
AcDbDictionary
281
     1
  3
CANNOSCALE
350
108
  0
DICTIONARY
  5
71
102
{ACAD_REACTORS
330
C
102
}
330
C
100
AcDbDictionary
281
     1
  0
LAYOUT
  5
22
102
{ACAD_REACTORS
330
1A
102
}
330
1A
100
AcDbPlotSettings
  1

  2
none_device
  4
ISO_A3_(420.00_x_297.00_MM)
  6

 40
7.5
 41
20.0
 42
7.5
 43
20.0
 44
420.0
 45
297.0
 46
20.78282828282826
 47
0.0
 48
0.0
 49
0.0
140
0.0
141
0.0
142
1.0
143
1.155642023346303
 70
  1204
 72
     1
 73
     0
 74
     1
  7
monochrome.ctb
 75
     0
147
0.8653198653198654
148
-134.1869158878504
149
0.0
100
AcDbLayout
  1
Model
 70
     1
 71
     0
 10
0.0
 20
0.0
 11
420.0
 21
297.0
 12
0.0
 22
0.0
 32
0.0
 14
1.000000000000000E+20
 24
1.000000000000000E+20
 34
1.000000000000000E+20
 15
-1.000000000000000E+20
 25
-1.000000000000000E+20
 35
-1.000000000000000E+20
146
0.0
 13
0.0
 23
0.0
 33
0.0
 16
1.0
 26
0.0
 36
0.0
 17
0.0
 27
1.0
 37
0.0
 76
     0
330
1F
331
29
  0
LAYOUT
  5
1E
102
{ACAD_REACTORS
330
1A
102
}
330
1A
100
AcDbPlotSettings
  1

  2
none_device
  4

  6

 40
0.0
 41
0.0
 42
0.0
 43
0.0
 44
0.0
 45
0.0
 46
0.0
 47
0.0
 48
0.0
 49
0.0
140
0.0
141
0.0
142
1.0
143
1.0
 70
   688
 72
     0
 73
     0
 74
     5
  7

 75
    16
147
1.0
148
0.0
149
0.0
100
AcDbLayout
  1
Sheet1
 70
     1
 71
     1
 10
0.0
 20
0.0
 11
420.0
 21
297.0
 12
0.0
 22
0.0
 32
0.0
 14
1.000000000000000E+20
 24
1.000000000000000E+20
 34
1.000000000000000E+20
 15
-1.000000000000000E+20
 25
-1.000000000000000E+20
 35
-1.000000000000000E+20
146
0.0
 13
0.0
 23
0.0
 33
0.0
 16
1.0
 26
0.0
 36
0.0
 17
0.0
 27
1.0
 37
0.0
 76
     0
330
1B
  0
LAYOUT
  5
26
102
{ACAD_REACTORS
330
1A
102
}
330
1A
100
AcDbPlotSettings
  1

  2
none_device
  4

  6

 40
0.0
 41
0.0
 42
0.0
 43
0.0
 44
0.0
 45
0.0
 46
0.0
 47
0.0
 48
0.0
 49
0.0
140
0.0
141
0.0
142
1.0
143
1.0
 70
   688
 72
     0
 73
     0
 74
     5
  7

 75
    16
147
1.0
148
0.0
149
0.0
100
AcDbLayout
  1
Sheet2
 70
     1
 71
     2
 10
0.0
 20
0.0
 11
0.0
 21
0.0
 12
0.0
 22
0.0
 32
0.0
 14
0.0
 24
0.0
 34
0.0
 15
0.0
 25
0.0
 35
0.0
146
0.0
 13
0.0
 23
0.0
 33
0.0
 16
1.0
 26
0.0
 36
0.0
 17
0.0
 27
1.0
 37
0.0
 76
     0
330
23
  0
MLINESTYLE
  5
18
102
{ACAD_REACTORS
330
17
102
}
330
17
100
AcDbMlineStyle
  2
Standard
 70
     0
  3

 62
   256
 51
90.0
 52
90.0
 71
     2
 49
0.5
 62
   256
  6
BYLAYER
 49
-0.5
 62
   256
  6
BYLAYER
  0
ACDBPLACEHOLDER
  5
F
102
{ACAD_REACTORS
330
E
102
}
330
E
  0
SCALE
  5
41
102
{ACAD_REACTORS
330
40
102
}
330
40
100
AcDbScale
 70
     0
300
1:1
140
1.0
141
1.0
290
     1
  0
SCALE
  5
42
102
{ACAD_REACTORS
330
40
102
}
330
40
100
AcDbScale
 70
     0
300
1:2
140
1.0
141
2.0
290
     0
  0
SCALE
  5
43
102
{ACAD_REACTORS
330
40
102
}
330
40
100
AcDbScale
 70
     0
300
1:4
140
1.0
141
4.0
290
     0
  0
SCALE
  5
44
102
{ACAD_REACTORS
330
40
102
}
330
40
100
AcDbScale
 70
     0
300
1:5
140
1.0
141
5.0
290
     0
  0
SCALE
  5
45
102
{ACAD_REACTORS
330
40
102
}
330
40
100
AcDbScale
 70
     0
300
1:8
140
1.0
141
8.0
290
     0
  0
SCALE
  5
46
102
{ACAD_REACTORS
330
40
102
}
330
40
100
AcDbScale
 70
     0
300
1:10
140
1.0
141
10.0
290
     0
  0
SCALE
  5
47
102
{ACAD_REACTORS
330
40
102
}
330
40
100
AcDbScale
 70
     0
300
1:16
140
1.0
141
16.0
290
     0
  0
SCALE
  5
48
102
{ACAD_REACTORS
330
40
102
}
330
40
100
AcDbScale
 70
     0
300
1:20
140
1.0
141
20.0
290
     0
  0
SCALE
  5
49
102
{ACAD_REACTORS
330
40
102
}
330
40
100
AcDbScale
 70
     0
300
1:30
140
1.0
141
30.0
290
     0
  0
SCALE
  5
4A
102
{ACAD_REACTORS
330
40
102
}
330
40
100
AcDbScale
 70
     0
300
1:40
140
1.0
141
40.0
290
     0
  0
SCALE
  5
4B
102
{ACAD_REACTORS
330
40
102
}
330
40
100
AcDbScale
 70
     0
300
1:50
140
1.0
141
50.0
290
     0
  0
SCALE
  5
4C
102
{ACAD_REACTORS
330
40
102
}
330
40
100
AcDbScale
 70
     0
300
1:100
140
1.0
141
100.0
290
     0
  0
SCALE
  5
4D
102
{ACAD_REACTORS
330
40
102
}
330
40
100
AcDbScale
 70
     0
300
2:1
140
2.0
141
1.0
290
     0
  0
SCALE
  5
4E
102
{ACAD_REACTORS
330
40
102
}
330
40
100
AcDbScale
 70
     0
300
4:1
140
4.0
141
1.0
290
     0
  0
SCALE
  5
4F
102
{ACAD_REACTORS
330
40
102
}
330
40
100
AcDbScale
 70
     0
300
8:1
140
8.0
141
1.0
290
     0
  0
SCALE
  5
50
102
{ACAD_REACTORS
330
40
102
}
330
40
100
AcDbScale
 70
     0
300
10:1
140
10.0
141
1.0
290
     0
  0
SCALE
  5
51
102
{ACAD_REACTORS
330
40
102
}
330
40
100
AcDbScale
 70
     0
300
100:1
140
100.0
141
1.0
290
     0
  0
SCALE
  5
52
102
{ACAD_REACTORS
330
40
102
}
330
40
100
AcDbScale
 70
     0
300
1/128" = 1'-0"
140
0.0078125
141
12.0
290
     0
  0
SCALE
  5
53
102
{ACAD_REACTORS
330
40
102
}
330
40
100
AcDbScale
 70
     0
300
1/64" = 1'-0"
140
0.015625
141
12.0
290
     0
  0
SCALE
  5
54
102
{ACAD_REACTORS
330
40
102
}
330
40
100
AcDbScale
 70
     0
300
1/32" = 1'-0"
140
0.03125
141
12.0
290
     0
  0
SCALE
  5
55
102
{ACAD_REACTORS
330
40
102
}
330
40
100
AcDbScale
 70
     0
300
1/16" = 1'-0"
140
0.0625
141
12.0
290
     0
  0
SCALE
  5
56
102
{ACAD_REACTORS
330
40
102
}
330
40
100
AcDbScale
 70
     0
300
3/32" = 1'-0"
140
0.09375
141
12.0
290
     0
  0
SCALE
  5
57
102
{ACAD_REACTORS
330
40
102
}
330
40
100
AcDbScale
 70
     0
300
1/8" = 1'-0"
140
0.125
141
12.0
290
     0
  0
SCALE
  5
58
102
{ACAD_REACTORS
330
40
102
}
330
40
100
AcDbScale
 70
     0
300
3/16" = 1'-0"
140
0.1875
141
12.0
290
     0
  0
SCALE
  5
59
102
{ACAD_REACTORS
330
40
102
}
330
40
100
AcDbScale
 70
     0
300
1/4" = 1'-0"
140
0.25
141
12.0
290
     0
  0
SCALE
  5
5A
102
{ACAD_REACTORS
330
40
102
}
330
40
100
AcDbScale
 70
     0
300
3/8" = 1'-0"
140
0.375
141
12.0
290
     0
  0
SCALE
  5
5B
102
{ACAD_REACTORS
330
40
102
}
330
40
100
AcDbScale
 70
     0
300
1/2" = 1'-0"
140
0.5
141
12.0
290
     0
  0
SCALE
  5
5C
102
{ACAD_REACTORS
330
40
102
}
330
40
100
AcDbScale
 70
     0
300
3/4" = 1'-0"
140
0.75
141
12.0
290
     0
  0
SCALE
  5
5D
102
{ACAD_REACTORS
330
40
102
}
330
40
100
AcDbScale
 70
     0
300
1" = 1'-0"
140
1.0
141
12.0
290
     0
  0
SCALE
  5
5E
102
{ACAD_REACTORS
330
40
102
}
330
40
100
AcDbScale
 70
     0
300
1-1/2" = 1'-0"
140
1.5
141
12.0
290
     0
  0
SCALE
  5
5F
102
{ACAD_REACTORS
330
40
102
}
330
40
100
AcDbScale
 70
     0
300
3" = 1'-0"
140
3.0
141
12.0
290
     0
  0
SCALE
  5
60
102
{ACAD_REACTORS
330
40
102
}
330
40
100
AcDbScale
 70
     0
300
6" = 1'-0"
140
6.0
141
12.0
290
     0
  0
SCALE
  5
61
102
{ACAD_REACTORS
330
40
102
}
330
40
100
AcDbScale
 70
     0
300
1'-0" = 1'-0"
140
12.0
141
12.0
290
     0
  0
DICTIONARYVAR
  5
108
102
{ACAD_REACTORS
330
3D
102
}
330
3D
100
DictionaryVariables
280
     0
  1
1:1
  0
ENDSEC
  0
EOF
