  0
SECTION
  2
HEADER
  9
$ACADVER
  1
AC1015
  9
$ACADMAINTVER
 70
     6
  9
$DWGCODEPAGE
  3
ANSI_1251
  9
$INSBASE
 10
0.0
 20
0.0
 30
0.0
  9
$EXTMIN
 10
1.000000000000000E+20
 20
1.000000000000000E+20
 30
1.000000000000000E+20
  9
$EXTMAX
 10
-1.000000000000000E+20
 20
-1.000000000000000E+20
 30
-1.000000000000000E+20
  9
$LIMMIN
 10
0.0
 20
0.0
  9
$LIMMAX
 10
420.0
 20
297.0
  9
$ORTHOMODE
 70
     0
  9
$REGENMODE
 70
     1
  9
$FILLMODE
 70
     1
  9
$QTEXTMODE
 70
     0
  9
$MIRRTEXT
 70
     0
  9
$LTSCALE
 40
1.0
  9
$ATTMODE
 70
     1
  9
$TEXTSIZE
 40
2.5
  9
$TRACEWID
 40
1.0
  9
$TEXTSTYLE
  7
Standard
  9
$CLAYER
  8
0
  9
$CELTYPE
  6
ByLayer
  9
$CECOLOR
 62
   256
  9
$CELTSCALE
 40
1.0
  9
$DISPSILH
 70
     0
  9
$DIMSCALE
 40
1.0
  9
$DIMASZ
 40
2.5
  9
$DIMEXO
 40
0.625
  9
$DIMDLI
 40
3.75
  9
$DIMRND
 40
0.0
  9
$DIMDLE
 40
0.0
  9
$DIMEXE
 40
1.25
  9
$DIMTP
 40
0.0
  9
$DIMTM
 40
0.0
  9
$DIMTXT
 40
2.5
  9
$DIMCEN
 40
2.5
  9
$DIMTSZ
 40
0.0
  9
$DIMTOL
 70
     0
  9
$DIMLIM
 70
     0
  9
$DIMTIH
 70
     0
  9
$DIMTOH
 70
     0
  9
$DIMSE1
 70
     0
  9
$DIMSE2
 70
     0
  9
$DIMTAD
 70
     1
  9
$DIMZIN
 70
     8
  9
$DIMBLK
  1

  9
$DIMASO
 70
     1
  9
$DIMSHO
 70
     1
  9
$DIMPOST
  1

  9
$DIMAPOST
  1

  9
$DIMALT
 70
     0
  9
$DIMALTD
 70
     3
  9
$DIMALTF
 40
0.03937007874016
  9
$DIMLFAC
 40
1.0
  9
$DIMTOFL
 70
     1
  9
$DIMTVP
 40
0.0
  9
$DIMTIX
 70
     0
  9
$DIMSOXD
 70
     0
  9
$DIMSAH
 70
     0
  9
$DIMBLK1
  1

  9
$DIMBLK2
  1

  9
$DIMSTYLE
  2
ISO-25
  9
$DIMCLRD
 70
     0
  9
$DIMCLRE
 70
     0
  9
$DIMCLRT
 70
     0
  9
$DIMTFAC
 40
1.0
  9
$DIMGAP
 40
0.625
  9
$DIMJUST
 70
     0
  9
$DIMSD1
 70
     0
  9
$DIMSD2
 70
     0
  9
$DIMTOLJ
 70
     0
  9
$DIMTZIN
 70
     8
  9
$DIMALTZ
 70
     0
  9
$DIMALTTZ
 70
     0
  9
$DIMUPT
 70
     0
  9
$DIMDEC
 70
     2
  9
$DIMTDEC
 70
     2
  9
$DIMALTU
 70
     2
  9
$DIMALTTD
 70
     3
  9
$DIMTXSTY
  7
Standard
  9
$DIMAUNIT
 70
     0
  9
$DIMADEC
 70
     0
  9
$DIMALTRND
 40
0.0
  9
$DIMAZIN
 70
     0
  9
$DIMDSEP
 70
    44
  9
$DIMATFIT
 70
     3
  9
$DIMFRAC
 70
     0
  9
$DIMLDRBLK
  1

  9
$DIMLUNIT
 70
     2
  9
$DIMLWD
 70
    -2
  9
$DIMLWE
 70
    -2
  9
$DIMTMOVE
 70
     0
  9
$LUNITS
 70
     2
  9
$LUPREC
 70
     3
  9
$SKETCHINC
 40
1.0
  9
$FILLETRAD
 40
10.0
  9
$AUNITS
 70
     0
  9
$AUPREC
 70
     0
  9
$MENU
  1
.
  9
$ELEVATION
 40
0.0
  9
$PELEVATION
 40
0.0
  9
$THICKNESS
 40
0.0
  9
$LIMCHECK
 70
     0
  9
$CHAMFERA
 40
10.0
  9
$CHAMFERB
 40
10.0
  9
$CHAMFERC
 40
20.0
  9
$CHAMFERD
 40
0.0
  9
$SKPOLY
 70
     0
  9
$TDCREATE
 40
2455022.637359514
  9
$TDUCREATE
 40
2455022.637359514
  9
$TDUPDATE
 40
2456247.643951678
  9
$TDUUPDATE
 40
2456247.643951678
  9
$TDINDWG
 40
0.0000000116
  9
$TDUSRTIMER
 40
2456247.643349873
  9
$USRTIMER
 70
     1
  9
$ANGBASE
 50
0.0
  9
$ANGDIR
 70
     0
  9
$PDMODE
 70
     0
  9
$PDSIZE
 40
0.0
  9
$PLINEWID
 40
0.0
  9
$SPLFRAME
 70
     0
  9
$SPLINETYPE
 70
     6
  9
$SPLINESEGS
 70
     8
  9
$HANDSEED
  5
ED
  9
$SURFTAB1
 70
     6
  9
$SURFTAB2
 70
     6
  9
$SURFTYPE
 70
     6
  9
$SURFU
 70
     6
  9
$SURFV
 70
     6
  9
$UCSBASE
  2

  9
$UCSNAME
  2

  9
$UCSORG
 10
0.0
 20
0.0
 30
0.0
  9
$UCSXDIR
 10
1.0
 20
0.0
 30
0.0
  9
$UCSYDIR
 10
0.0
 20
1.0
 30
0.0
  9
$UCSORTHOREF
  2

  9
$UCSORTHOVIEW
 70
     0
  9
$UCSORGTOP
 10
0.0
 20
0.0
 30
0.0
  9
$UCSORGBOTTOM
 10
0.0
 20
0.0
 30
0.0
  9
$UCSORGLEFT
 10
0.0
 20
0.0
 30
0.0
  9
$UCSORGRIGHT
 10
0.0
 20
0.0
 30
0.0
  9
$UCSORGFRONT
 10
0.0
 20
0.0
 30
0.0
  9
$UCSORGBACK
 10
0.0
 20
0.0
 30
0.0
  9
$PUCSBASE
  2

  9
$PUCSNAME
  2

  9
$PUCSORG
 10
0.0
 20
0.0
 30
0.0
  9
$PUCSXDIR
 10
1.0
 20
0.0
 30
0.0
  9
$PUCSYDIR
 10
0.0
 20
1.0
 30
0.0
  9
$PUCSORTHOREF
  2

  9
$PUCSORTHOVIEW
 70
     0
  9
$PUCSORGTOP
 10
0.0
 20
0.0
 30
0.0
  9
$PUCSORGBOTTOM
 10
0.0
 20
0.0
 30
0.0
  9
$PUCSORGLEFT
 10
0.0
 20
0.0
 30
0.0
  9
$PUCSORGRIGHT
 10
0.0
 20
0.0
 30
0.0
  9
$PUCSORGFRONT
 10
0.0
 20
0.0
 30
0.0
  9
$PUCSORGBACK
 10
0.0
 20
0.0
 30
0.0
  9
$USERI1
 70
     0
  9
$USERI2
 70
     0
  9
$USERI3
 70
     0
  9
$USERI4
 70
     0
  9
$USERI5
 70
     0
  9
$USERR1
 40
0.0
  9
$USERR2
 40
0.0
  9
$USERR3
 40
0.0
  9
$USERR4
 40
0.0
  9
$USERR5
 40
0.0
  9
$WORLDVIEW
 70
     1
  9
$SHADEDGE
 70
     3
  9
$SHADEDIF
 70
    70
  9
$TILEMODE
 70
     1
  9
$MAXACTVP
 70
    64
  9
$PINSBASE
 10
0.0
 20
0.0
 30
0.0
  9
$PLIMCHECK
 70
     0
  9
$PEXTMIN
 10
1.000000000000000E+20
 20
1.000000000000000E+20
 30
1.000000000000000E+20
  9
$PEXTMAX
 10
-1.000000000000000E+20
 20
-1.000000000000000E+20
 30
-1.000000000000000E+20
  9
$PLIMMIN
 10
0.0
 20
0.0
  9
$PLIMMAX
 10
420.0
 20
297.0
  9
$UNITMODE
 70
     0
  9
$VISRETAIN
 70
     1
  9
$PLINEGEN
 70
     0
  9
$PSLTSCALE
 70
     1
  9
$TREEDEPTH
 70
  3020
  9
$CMLSTYLE
  2
Standard
  9
$CMLJUST
 70
     0
  9
$CMLSCALE
 40
20.0
  9
$PROXYGRAPHICS
 70
     1
  9
$MEASUREMENT
 70
     1
  9
$CELWEIGHT
370
    -1
  9
$ENDCAPS
280
     0
  9
$JOINSTYLE
280
     0
  9
$LWDISPLAY
290
     0
  9
$INSUNITS
 70
     4
  9
$HYPERLINKBASE
  1

  9
$STYLESHEET
  1

  9
$XEDIT
290
     1
  9
$CEPSNTYPE
380
     0
  9
$PSTYLEMODE
290
     1
  9
$FINGERPRINTGUID
  2
{EC6BB858-51AA-46EC-B484-6C9CC7AB3E2E}
  9
$VERSIONGUID
  2
{FAEB1C32-E019-11D5-929B-00C0DF256EC4}
  9
$EXTNAMES
290
     1
  9
$PSVPSCALE
 40
0.0
  9
$OLESTARTUP
290
     0
  0
ENDSEC
  0
SECTION
  2
CLASSES
  0
CLASS
  1
ACDBDICTIONARYWDFLT
  2
AcDbDictionaryWithDefault
  3
ObjectDBX Classes
 90
        0
280
     0
281
     0
  0
CLASS
  1
VISUALSTYLE
  2
AcDbVisualStyle
  3
ObjectDBX Classes
 90
     4095
280
     0
281
     0
  0
CLASS
  1
TABLESTYLE
  2
AcDbTableStyle
  3
ObjectDBX Classes
 90
     4095
280
     0
281
     0
  0
CLASS
  1
DICTIONARYVAR
  2
AcDbDictionaryVar
  3
ObjectDBX Classes
 90
        0
280
     0
281
     0
  0
CLASS
  1
SCALE
  2
AcDbScale
  3
ObjectDBX Classes
 90
     1153
280
     0
281
     0
  0
CLASS
  1
CELLSTYLEMAP
  2
AcDbCellStyleMap
  3
ObjectDBX Classes
 90
     1152
280
     0
281
     0
  0
CLASS
  1
RASTERVARIABLES
  2
AcDbRasterVariables
  3
ISM
 90
        0
280
     0
281
     0
  0
CLASS
  1
MATERIAL
  2
AcDbMaterial
  3
ObjectDBX Classes
 90
     1153
280
     0
281
     0
  0
CLASS
  1
ACDBPLACEHOLDER
  2
AcDbPlaceHolder
  3
ObjectDBX Classes
 90
        0
280
     0
281
     0
  0
CLASS
  1
LAYOUT
  2
AcDbLayout
  3
ObjectDBX Classes
 90
        0
280
     0
281
     0
  0
ENDSEC
  0
SECTION
  2
TABLES
  0
TABLE
  2
VPORT
  5
8
330
0
100
AcDbSymbolTable
 70
     1
  0
VPORT
  5
29
330
8
100
AcDbSymbolTableRecord
100
AcDbViewportTableRecord
  2
*Active
 70
     0
 10
0.0
 20
0.0
 11
1.0
 21
1.0
 12
5031.724752617891
 22
7068.526813182691
 13
0.0
 23
0.0
 14
10.0
 24
10.0
 15
10.0
 25
10.0
 16
0.0
 26
0.0
 36
1.0
 17
-134.1869158878471
 27
0.0
 37
0.0
 40
17106.31636342441
 41
2.248421052631579
 42
50.0
 43
0.0
 44
0.0
 50
0.0
 51
0.0
 71
    16
 72
  1000
 73
     1
 74
     3
 75
     0
 76
     0
 77
     0
 78
     0
281
     0
 65
     1
110
0.0
120
0.0
130
0.0
111
1.0
121
0.0
131
0.0
112
0.0
122
1.0
132
0.0
 79
     0
146
0.0
  0
ENDTAB
  0
TABLE
  2
LTYPE
  5
5
330
0
100
AcDbSymbolTable
 70
     1
  0
LTYPE
  5
14
330
5
100
AcDbSymbolTableRecord
100
AcDbLinetypeTableRecord
  2
ByBlock
 70
     0
  3

 72
    65
 73
     0
 40
0.0
  0
LTYPE
  5
15
330
5
100
AcDbSymbolTableRecord
100
AcDbLinetypeTableRecord
  2
ByLayer
 70
     0
  3

 72
    65
 73
     0
 40
0.0
  0
LTYPE
  5
16
330
5
100
AcDbSymbolTableRecord
100
AcDbLinetypeTableRecord
  2
Continuous
 70
     0
  3
Solid line
 72
    65
 73
     0
 40
0.0
  0
ENDTAB
  0
TABLE
  2
LAYER
  5
2
330
0
100
AcDbSymbolTable
 70
     3
  0
LAYER
  5
10
330
2
100
AcDbSymbolTableRecord
100
AcDbLayerTableRecord
  2
0
 70
     0
 62
     7
  6
Continuous
370
    -3
390
F
  0
LAYER
  5
77
330
2
100
AcDbSymbolTableRecord
100
AcDbLayerTableRecord
  2
fluid
 70
     0
 62
     4
  6
Continuous
370
    -3
390
F
1001
AcAecLayerStandard
1000

1000

  0
LAYER
  5
82
330
2
100
AcDbSymbolTableRecord
100
AcDbLayerTableRecord
  2
insets
 70
     0
 62
    30
  6
Continuous
370
    -3
390
F
1001
AcAecLayerStandard
1000

1000

  0
ENDTAB
  0
TABLE
  2
STYLE
  5
3
330
0
100
AcDbSymbolTable
 70
     1
  0
STYLE
  5
11
330
3
100
AcDbSymbolTableRecord
100
AcDbTextStyleTableRecord
  2
Standard
 70
     0
 40
0.0
 41
1.0
 50
0.0
 71
     0
 42
2.5
  3
txt
  4

  0
ENDTAB
  0
TABLE
  2
VIEW
  5
6
330
0
100
AcDbSymbolTable
 70
     0
  0
ENDTAB
  0
TABLE
  2
UCS
  5
7
330
0
100
AcDbSymbolTable
 70
     0
  0
ENDTAB
  0
TABLE
  2
APPID
  5
9
330
0
100
AcDbSymbolTable
 70
     2
  0
APPID
  5
12
330
9
100
AcDbSymbolTableRecord
100
AcDbRegAppTableRecord
  2
ACAD
 70
     0
  0
APPID
  5
79
330
9
100
AcDbSymbolTableRecord
100
AcDbRegAppTableRecord
  2
AcAecLayerStandard
 70
     0
  0
ENDTAB
  0
TABLE
  2
DIMSTYLE
  5
A
330
0
100
AcDbSymbolTable
 70
     1
100
AcDbDimStyleTable
  0
DIMSTYLE
105
27
330
A
100
AcDbSymbolTableRecord
100
AcDbDimStyleTableRecord
  2
ISO-25
 70
     0
 41
2.5
 42
0.625
 43
3.75
 44
1.25
 73
     0
 74
     0
 77
     1
 78
     8
140
2.5
141
2.5
143
0.03937007874016
147
0.625
171
     3
172
     1
178
     0
271
     2
272
     2
274
     3
278
    44
283
     0
284
     8
340
11
  0
ENDTAB
  0
TABLE
  2
BLOCK_RECORD
  5
1
330
0
100
AcDbSymbolTable
 70
     1
  0
BLOCK_RECORD
  5
1F
330
1
100
AcDbSymbolTableRecord
100
AcDbBlockTableRecord
  2
*Model_Space
340
22
  0
BLOCK_RECORD
  5
1B
330
1
100
AcDbSymbolTableRecord
100
AcDbBlockTableRecord
  2
*Paper_Space
340
1E
  0
BLOCK_RECORD
  5
23
330
1
100
AcDbSymbolTableRecord
100
AcDbBlockTableRecord
  2
*Paper_Space0
340
26
  0
ENDTAB
  0
ENDSEC
  0
SECTION
  2
BLOCKS
  0
BLOCK
  5
20
330
1F
100
AcDbEntity
  8
0
100
AcDbBlockBegin
  2
*Model_Space
 70
     0
 10
0.0
 20
0.0
 30
0.0
  3
*Model_Space
  1

  0
ENDBLK
  5
21
330
1F
100
AcDbEntity
  8
0
100
AcDbBlockEnd
  0
BLOCK
  5
1C
330
1B
100
AcDbEntity
 67
     1
  8
0
100
AcDbBlockBegin
  2
*Paper_Space
 70
     0
 10
0.0
 20
0.0
 30
0.0
  3
*Paper_Space
  1

  0
ENDBLK
  5
1D
330
1B
100
AcDbEntity
 67
     1
  8
0
100
AcDbBlockEnd
  0
BLOCK
  5
24
330
23
100
AcDbEntity
  8
0
100
AcDbBlockBegin
  2
*Paper_Space0
 70
     0
 10
0.0
 20
0.0
 30
0.0
  3
*Paper_Space0
  1

  0
ENDBLK
  5
25
330
23
100
AcDbEntity
  8
0
100
AcDbBlockEnd
  0
ENDSEC
  0
SECTION
  2
ENTITIES
  0
LWPOLYLINE
  5
76
330
1F
100
AcDbEntity
  8
0
100
AcDbPolyline
 90
        2
 70
     0
 43
0.0
 10
6623.281394953025
 20
10841.93844758463
 10
7123.281394953025
 20
10841.93844758463
  0
LWPOLYLINE
  5
7B
330
1F
100
AcDbEntity
  8
0
100
AcDbPolyline
 90
        2
 70
     0
 43
0.0
 10
6438.177609609556
 20
11091.93844758463
 10
7123.281394953025
 20
11091.93844758463
  0
LWPOLYLINE
  5
7C
330
1F
100
AcDbEntity
  8
0
100
AcDbPolyline
 90
        2
 70
     0
 43
0.0
 10
5858.281394953025
 20
11091.93844758463
 10
5173.281394953025
 20
11091.93844758463
  0
LWPOLYLINE
  5
7D
330
1F
100
AcDbEntity
  8
0
100
AcDbPolyline
 90
        2
 70
     0
 43
0.0
 10
5673.281394953025
 20
10841.93844758463
 10
5173.281394953025
 20
10841.93844758463
  0
LWPOLYLINE
  5
7E
330
1F
100
AcDbEntity
  8
0
100
AcDbPolyline
 90
        2
 70
     0
 43
0.0
 10
6623.281394953025
 20
7091.938447584631
 10
7123.281394953025
 20
7091.938447584631
  0
LWPOLYLINE
  5
7F
330
1F
100
AcDbEntity
  8
0
100
AcDbPolyline
 90
        2
 70
     0
 43
0.0
 10
6623.281394953025
 20
7341.938447584631
 10
7123.281394953025
 20
7341.938447584631
  0
LWPOLYLINE
  5
80
330
1F
100
AcDbEntity
  8
0
100
AcDbPolyline
 90
       18
 70
     0
 43
0.0
 10
5865.519351893221
 20
3927.271431849513
 10
5756.263639690937
 20
3825.896945620887
 10
5681.742506602895
 20
3696.822556874715
 10
5648.577482334455
 20
3551.51709148474
 10
5659.715424833936
 20
3402.891577713366
 10
5714.166679032729
 20
3264.152044691553
 10
5807.093012039433
 20
3147.626108776603
 10
5930.237511366257
 20
3063.667610740347
 10
6072.658247836749
 20
3019.73663157894
 10
6221.700514013064
 20
3019.73663157894
 10
6364.121250483789
 20
3063.667610740347
 10
6487.26574981038
 20
3147.626108776603
 10
6580.192082817084
 20
3264.152044691553
 10
6634.643337015877
 20
3402.891577713366
 10
6645.781279515591
 20
3551.51709148474
 10
6612.616255246918
 20
3696.822556874715
 10
6538.095122158877
 20
3825.896945620887
 10
6428.839409956825
 20
3927.271431849513
  0
LWPOLYLINE
  5
81
330
1F
100
AcDbEntity
  8
0
100
AcDbPolyline
 90
       20
 70
     0
 43
0.0
 10
6241.86925952381
 20
3653.036588413583
 10
6371.871115368442
 20
3843.714290182514
 10
6459.028869193164
 20
3762.843712921953
 10
6518.477427456179
 20
3659.875789573707
 10
6544.934524870128
 20
3543.959671994555
 10
6536.049332225113
 20
3425.395015920862
 10
6492.611337879091
 20
3314.716811357299
 10
6418.480198254692
 20
3221.759302482591
 10
6320.24279042671
 20
3154.782171897532
 10
6206.627939188038
 20
3119.73663157894
 10
6087.730822662008
 20
3119.73663157894
 10
5974.115971423336
 20
3154.782171897532
 10
5875.878563595121
 20
3221.759302482591
 10
5801.747423970723
 20
3314.716811357299
 10
5758.309429624933
 20
3425.395015920862
 10
5749.424236979685
 20
3543.959671994555
 10
5775.881334393867
 20
3659.875789573707
 10
5835.329892656882
 20
3762.843712921953
 10
5922.487646481371
 20
3843.714290182514
 10
6052.489502326003
 20
3653.036588413583
  0
LWPOLYLINE
  5
83
330
1F
100
AcDbEntity
  8
0
100
AcDbPolyline
 90
       14
 70
     0
 43
0.0
 10
6052.398155053495
 20
3444.158883600496
 10
6051.964500915841
 20
3335.333319114754
 10
6054.091443997459
 20
3306.951236134279
 10
6064.489658784703
 20
3280.457016945526
 10
6082.235218261951
 20
3258.204789191368
 10
6105.751351594576
 20
3242.171760960133
 10
6132.948547137086
 20
3233.782537169871
 10
6161.410214712727
 20
3233.782537169871
 10
6188.607410255237
 20
3242.171760960133
 10
6212.123543587863
 20
3258.204789191368
 10
6229.86910306511
 20
3280.457016945526
 10
6240.267317852355
 20
3306.951236134279
 10
6242.394260933972
 20
3335.333319114754
 10
6241.86925952381
 20
3467.082494004455
  0
LWPOLYLINE
  5
84
330
1F
100
AcDbEntity
  8
0
100
AcDbPolyline
 90
        2
 70
     0
 43
0.0
 10
6052.489502326003
 20
3653.036588413583
 10
6052.398155053495
 20
3444.158883600496
  0
LWPOLYLINE
  5
85
330
1F
100
AcDbEntity
  8
0
100
AcDbPolyline
 90
        2
 70
     0
 43
0.0
 10
6241.86925952381
 20
3653.036588413583
 10
6241.86925952381
 20
3467.082494004455
  0
LWPOLYLINE
  5
86
330
1F
100
AcDbEntity
  8
0
100
AcDbPolyline
 90
        2
 70
     0
 43
0.0
 10
5865.519351893221
 20
3927.271431849513
 10
5898.281394953025
 20
3991.938447584631
  0
LWPOLYLINE
  5
87
330
1F
100
AcDbEntity
  8
0
100
AcDbPolyline
 90
        2
 70
     0
 43
0.0
 10
6428.839409956825
 20
3927.271431849513
 10
6398.281394953025
 20
3991.938447584631
  0
LWPOLYLINE
  5
88
330
1F
100
AcDbEntity
  8
0
100
AcDbPolyline
 90
        2
 70
     0
 43
0.0
 10
5673.281394953025
 20
7341.938447584631
 10
5173.281394953025
 20
7341.938447584631
  0
LWPOLYLINE
  5
89
330
1F
100
AcDbEntity
  8
0
100
AcDbPolyline
 90
        2
 70
     0
 43
0.0
 10
5673.281394953025
 20
7091.938447584631
 10
5173.281394953025
 20
7091.938447584631
  0
LWPOLYLINE
  5
8A
330
1F
100
AcDbEntity
  8
0
100
AcDbPolyline
 90
        5
 70
     0
 43
0.0
 10
11845.48321095866
 20
14864.14026359025
 10
451.0795789473923
 20
14864.14026359025
 10
451.0795789473923
 20
519.7366315789404
 10
11845.48321095866
 20
519.7366315789404
 10
11845.48321095866
 20
14864.14026359025
  0
LWPOLYLINE
  5
8B
330
1F
100
AcDbEntity
  8
0
100
AcDbPolyline
 90
        4
 70
     1
 43
0.0
 10
12095.48321095866
 20
15114.14026359025
 10
201.0795789473923
 20
15114.14026359025
 10
201.0795789473923
 20
269.7366315789404
 10
12095.48321095866
 20
269.7366315789404
  0
LWPOLYLINE
  5
8C
330
1F
100
AcDbEntity
  8
0
100
AcDbPolyline
 90
        5
 70
     0
 43
0.0
 10
7123.281394953025
 20
7091.938447584631
 10
8019.728004359757
 20
7091.938447584631
 10
8226.834785546293
 20
7091.938447584631
 10
8373.281394953025
 20
7238.385056991363
 10
8373.281394953025
 20
7445.491838177899
  0
LWPOLYLINE
  5
8D
330
1F
100
AcDbEntity
  8
0
100
AcDbPolyline
 90
        4
 70
     0
 43
0.0
 10
7123.281394953025
 20
7341.938447584631
 10
8019.728004359757
 20
7341.938447584631
 10
8123.281394953025
 20
7341.938447584631
 10
8123.281394953025
 20
7445.491838177899
  0
LWPOLYLINE
  5
8E
330
1F
100
AcDbEntity
  8
0
100
AcDbPolyline
 90
        5
 70
     0
 43
0.0
 10
7123.281394953025
 20
11091.93844758463
 10
8019.728004359757
 20
11091.93844758463
 10
8226.834785546293
 20
11091.93844758463
 10
8373.281394953025
 20
10945.4918381779
 10
8373.281394953025
 20
10738.38505699136
  0
LWPOLYLINE
  5
8F
330
1F
100
AcDbEntity
  8
0
100
AcDbPolyline
 90
        4
 70
     0
 43
0.0
 10
7123.281394953025
 20
10841.93844758463
 10
8019.728004359757
 20
10841.93844758463
 10
8123.281394953025
 20
10841.93844758463
 10
8123.281394953025
 20
10738.38505699136
  0
LWPOLYLINE
  5
90
330
1F
100
AcDbEntity
  8
0
100
AcDbPolyline
 90
        2
 70
     0
 43
0.0
 10
8373.281394953025
 20
10738.38505699136
 10
8373.281394953025
 20
7445.491838177899
  0
LWPOLYLINE
  5
91
330
1F
100
AcDbEntity
  8
0
100
AcDbPolyline
 90
        2
 70
     0
 43
0.0
 10
8123.281394953025
 20
10738.38505699136
 10
8123.281394953025
 20
7445.491838177899
  0
LWPOLYLINE
  5
92
330
1F
100
AcDbEntity
  8
0
100
AcDbPolyline
 90
        5
 70
     0
 43
0.0
 10
5173.281394953025
 20
7091.938447584631
 10
4276.834785546293
 20
7091.938447584631
 10
4069.728004359757
 20
7091.938447584631
 10
3923.281394953025
 20
7238.385056991363
 10
3923.281394953025
 20
7445.491838177899
  0
LWPOLYLINE
  5
93
330
1F
100
AcDbEntity
  8
0
100
AcDbPolyline
 90
        4
 70
     0
 43
0.0
 10
5173.281394953025
 20
7341.938447584631
 10
4276.834785546293
 20
7341.938447584631
 10
4173.281394953025
 20
7341.938447584631
 10
4173.281394953025
 20
7445.491838177899
  0
LWPOLYLINE
  5
94
330
1F
100
AcDbEntity
  8
0
100
AcDbPolyline
 90
        5
 70
     0
 43
0.0
 10
5173.281394953025
 20
11091.93844758463
 10
4276.834785546293
 20
11091.93844758463
 10
4069.728004359757
 20
11091.93844758463
 10
3923.281394953025
 20
10945.4918381779
 10
3923.281394953025
 20
10738.38505699136
  0
LWPOLYLINE
  5
95
330
1F
100
AcDbEntity
  8
0
100
AcDbPolyline
 90
        4
 70
     0
 43
0.0
 10
5173.281394953025
 20
10841.93844758463
 10
4276.834785546293
 20
10841.93844758463
 10
4173.281394953025
 20
10841.93844758463
 10
4173.281394953025
 20
10738.38505699136
  0
LWPOLYLINE
  5
96
330
1F
100
AcDbEntity
  8
0
100
AcDbPolyline
 90
        2
 70
     0
 43
0.0
 10
3923.281394953025
 20
10738.38505699136
 10
3923.281394953025
 20
7445.491838177899
  0
LWPOLYLINE
  5
97
330
1F
100
AcDbEntity
  8
0
100
AcDbPolyline
 90
        2
 70
     0
 43
0.0
 10
4173.281394953025
 20
10738.38505699136
 10
4173.281394953025
 20
7445.491838177899
  0
TEXT
  5
98
330
1F
100
AcDbEntity
  8
0
100
AcDbText
 10
1166.804565986269
 20
1019.73663157894
 30
0.0
 40
734.2803532077291
  1
30µm
100
AcDbText
  0
LWPOLYLINE
  5
9A
330
1F
100
AcDbEntity
  8
0
100
AcDbPolyline
 90
        3
 70
     0
 43
0.0
 10
6133.281394953025
 20
7201.938447584631
 10
6033.281394953025
 20
7201.938447584631
 10
5673.281394953025
 20
7091.938447584631
  0
LWPOLYLINE
  5
9B
330
1F
100
AcDbEntity
  8
0
100
AcDbPolyline
 90
        3
 70
     0
 43
0.0
 10
6133.281394953025
 20
7231.938447584631
 10
6033.281394953025
 20
7231.938447584631
 10
5673.281394953025
 20
7341.938447584631
  0
LWPOLYLINE
  5
9C
330
1F
100
AcDbEntity
  8
0
100
AcDbPolyline
 90
        3
 70
     0
 43
0.0
 10
6163.281394953025
 20
7231.938447584631
 10
6263.281394953025
 20
7231.938447584631
 10
6623.281394953025
 20
7341.938447584631
  0
LWPOLYLINE
  5
9D
330
1F
100
AcDbEntity
  8
0
100
AcDbPolyline
 90
        3
 70
     0
 43
0.0
 10
6163.281394953025
 20
7201.938447584631
 10
6263.281394953025
 20
7201.938447584631
 10
6623.281394953025
 20
7091.938447584631
  0
LWPOLYLINE
  5
9E
330
1F
100
AcDbEntity
  8
0
100
AcDbPolyline
 90
        2
 70
     0
 43
0.0
 10
6398.281394953025
 20
3991.938447584631
 10
6178.281394953025
 20
6596.938447584631
  0
LWPOLYLINE
  5
9F
330
1F
100
AcDbEntity
  8
0
100
AcDbPolyline
 90
        2
 70
     0
 43
0.0
 10
5898.281394953025
 20
3991.938447584631
 10
6118.281394953025
 20
6596.938447584631
  0
LWPOLYLINE
  5
A0
330
1F
100
AcDbEntity
  8
0
100
AcDbPolyline
 90
       18
 70
     0
 43
0.0
 10
6438.281394953025
 20
11466.1334287214
 10
6541.125869747135
 20
11557.97994954832
 10
6615.647002835409
 20
11687.05433829455
 10
6648.81202710385
 20
11832.35980368446
 10
6637.674084604136
 20
11980.98531745584
 10
6583.222830405342
 20
12119.72485047765
 10
6490.296497398638
 20
12236.2507863926
 10
6367.151998072048
 20
12320.20928442886
 10
6224.731261601322
 20
12364.14026359026
 10
6075.688995425007
 20
12364.14026359026
 10
5933.268258954515
 20
12320.20928442886
 10
5810.123759627691
 20
12236.2507863926
 10
5717.197426620987
 20
12119.72485047765
 10
5662.746172422194
 20
11980.98531745584
 10
5651.608229922713
 20
11832.35980368446
 10
5684.773254191154
 20
11687.05433829455
 10
5759.294387279195
 20
11557.97994954832
 10
5858.281394953025
 20
11467.95240569563
  0
LWPOLYLINE
  5
A1
330
1F
100
AcDbEntity
  8
0
100
AcDbPolyline
 90
       20
 70
     0
 43
0.0
 10
6055.520249914262
 20
11730.84030675568
 10
5925.51839406963
 20
11540.16260498669
 10
5838.360640245141
 20
11621.03318224725
 10
5778.912081982126
 20
11724.0011055955
 10
5752.454984567943
 20
11839.91722317465
 10
5761.340177213191
 20
11958.48187924834
 10
5804.778171558981
 20
12069.1600838119
 10
5878.909311183379
 20
12162.11759268661
 10
5977.146719011595
 20
12229.09472327167
 10
6090.761570250266
 20
12264.14026359026
 10
6209.658686776296
 20
12264.14026359026
 10
6323.273538014968
 20
12229.09472327167
 10
6421.510945842951
 20
12162.11759268661
 10
6495.642085467349
 20
12069.1600838119
 10
6539.080079813139
 20
11958.48187924834
 10
6547.965272458387
 20
11839.91722317465
 10
6521.508175044437
 20
11724.0011055955
 10
6462.059616781189
 20
11621.03318224725
 10
6374.9018629567
 20
11540.16260498669
 10
6244.900007112068
 20
11730.84030675568
  0
LWPOLYLINE
  5
A2
330
1F
100
AcDbEntity
  8
0
100
AcDbPolyline
 90
       14
 70
     0
 43
0.0
 10
6244.991354384576
 20
11939.71801156871
 10
6245.42500852223
 20
12048.54357605445
 10
6243.298065440613
 20
12076.92565903493
 10
6232.899850653368
 20
12103.41987822368
 10
6215.154291176354
 20
12125.67210597784
 10
6191.638157843496
 20
12141.70513420907
 10
6164.440962300985
 20
12150.09435799945
 10
6135.979294725345
 20
12150.09435799945
 10
6108.782099182834
 20
12141.70513420913
 10
6085.265965850209
 20
12125.67210597784
 10
6067.520406372962
 20
12103.41987822368
 10
6057.122191585717
 20
12076.92565903493
 10
6054.995248504099
 20
12048.54357605445
 10
6055.520249914262
 20
11916.79440116475
  0
LWPOLYLINE
  5
A3
330
1F
100
AcDbEntity
  8
0
100
AcDbPolyline
 90
        2
 70
     0
 43
0.0
 10
6244.900007112068
 20
11730.84030675568
 10
6244.991354384576
 20
11939.71801156871
  0
LWPOLYLINE
  5
A4
330
1F
100
AcDbEntity
  8
0
100
AcDbPolyline
 90
        2
 70
     0
 43
0.0
 10
6055.520249914262
 20
11730.84030675568
 10
6055.520249914262
 20
11916.79440116475
  0
LWPOLYLINE
  5
A5
330
1F
100
AcDbEntity
  8
0
100
AcDbPolyline
 90
        2
 70
     0
 43
0.0
 10
5858.281394953025
 20
11091.93844758463
 10
5858.281394953025
 20
11152.09195506823
  0
LWPOLYLINE
  5
A6
330
1F
100
AcDbEntity
  8
0
100
AcDbPolyline
 90
        5
 70
     0
 43
0.0
 10
5843.281394953025
 20
11272.09195506823
 10
5893.281394953025
 20
11272.09195506823
 10
5893.281394953025
 20
11222.09195506823
 10
5843.281394953025
 20
11222.09195506823
 10
5843.281394953025
 20
11272.09195506823
  0
LWPOLYLINE
  5
A7
330
1F
100
AcDbEntity
  8
0
100
AcDbPolyline
 90
        5
 70
     0
 43
0.0
 10
5913.281394953025
 20
11272.09195506823
 10
5963.281394953025
 20
11272.09195506823
 10
5963.281394953025
 20
11222.09195506823
 10
5913.281394953025
 20
11222.09195506823
 10
5913.281394953025
 20
11272.09195506823
  0
LWPOLYLINE
  5
A8
330
1F
100
AcDbEntity
  8
0
100
AcDbPolyline
 90
        5
 70
     0
 43
0.0
 10
5983.281394953025
 20
11272.09195506823
 10
6033.281394953025
 20
11272.09195506823
 10
6033.281394953025
 20
11222.09195506823
 10
5983.281394953025
 20
11222.09195506823
 10
5983.281394953025
 20
11272.09195506823
  0
LWPOLYLINE
  5
A9
330
1F
100
AcDbEntity
  8
0
100
AcDbPolyline
 90
        5
 70
     0
 43
0.0
 10
6053.281394953025
 20
11272.09195506823
 10
6103.281394953025
 20
11272.09195506823
 10
6103.281394953025
 20
11222.09195506823
 10
6053.281394953025
 20
11222.09195506823
 10
6053.281394953025
 20
11272.09195506823
  0
LWPOLYLINE
  5
AA
330
1F
100
AcDbEntity
  8
0
100
AcDbPolyline
 90
        5
 70
     0
 43
0.0
 10
6123.281394953025
 20
11272.09195506823
 10
6173.281394953025
 20
11272.09195506823
 10
6173.281394953025
 20
11222.09195506823
 10
6123.281394953025
 20
11222.09195506823
 10
6123.281394953025
 20
11272.09195506823
  0
LWPOLYLINE
  5
AB
330
1F
100
AcDbEntity
  8
0
100
AcDbPolyline
 90
        5
 70
     0
 43
0.0
 10
6193.281394953025
 20
11272.09195506823
 10
6243.281394953025
 20
11272.09195506823
 10
6243.281394953025
 20
11222.09195506823
 10
6193.281394953025
 20
11222.09195506823
 10
6193.281394953025
 20
11272.09195506823
  0
LWPOLYLINE
  5
AC
330
1F
100
AcDbEntity
  8
0
100
AcDbPolyline
 90
        5
 70
     0
 43
0.0
 10
5878.281394953025
 20
11342.09195506823
 10
5928.281394953025
 20
11342.09195506823
 10
5928.281394953025
 20
11292.09195506823
 10
5878.281394953025
 20
11292.09195506823
 10
5878.281394953025
 20
11342.09195506823
  0
LWPOLYLINE
  5
AD
330
1F
100
AcDbEntity
  8
0
100
AcDbPolyline
 90
        5
 70
     0
 43
0.0
 10
5948.281394953025
 20
11342.09195506823
 10
5998.281394953025
 20
11342.09195506823
 10
5998.281394953025
 20
11292.09195506823
 10
5948.281394953025
 20
11292.09195506823
 10
5948.281394953025
 20
11342.09195506823
  0
LWPOLYLINE
  5
AE
330
1F
100
AcDbEntity
  8
0
100
AcDbPolyline
 90
        5
 70
     0
 43
0.0
 10
6018.281394953025
 20
11342.09195506823
 10
6068.281394953025
 20
11342.09195506823
 10
6068.281394953025
 20
11292.09195506823
 10
6018.281394953025
 20
11292.09195506823
 10
6018.281394953025
 20
11342.09195506823
  0
LWPOLYLINE
  5
AF
330
1F
100
AcDbEntity
  8
0
100
AcDbPolyline
 90
        5
 70
     0
 43
0.0
 10
6088.281394953025
 20
11342.09195506823
 10
6138.281394953025
 20
11342.09195506823
 10
6138.281394953025
 20
11292.09195506823
 10
6088.281394953025
 20
11292.09195506823
 10
6088.281394953025
 20
11342.09195506823
  0
LWPOLYLINE
  5
B0
330
1F
100
AcDbEntity
  8
0
100
AcDbPolyline
 90
        5
 70
     0
 43
0.0
 10
6158.281394953025
 20
11342.09195506823
 10
6208.281394953025
 20
11342.09195506823
 10
6208.281394953025
 20
11292.09195506823
 10
6158.281394953025
 20
11292.09195506823
 10
6158.281394953025
 20
11342.09195506823
  0
LWPOLYLINE
  5
B1
330
1F
100
AcDbEntity
  8
0
100
AcDbPolyline
 90
        5
 70
     0
 43
0.0
 10
5878.281394953025
 20
11202.09195506823
 10
5928.281394953025
 20
11202.09195506823
 10
5928.281394953025
 20
11152.09195506823
 10
5878.281394953025
 20
11152.09195506823
 10
5878.281394953025
 20
11202.09195506823
  0
LWPOLYLINE
  5
B2
330
1F
100
AcDbEntity
  8
0
100
AcDbPolyline
 90
        5
 70
     0
 43
0.0
 10
5948.281394953025
 20
11202.09195506823
 10
5998.281394953025
 20
11202.09195506823
 10
5998.281394953025
 20
11152.09195506823
 10
5948.281394953025
 20
11152.09195506823
 10
5948.281394953025
 20
11202.09195506823
  0
LWPOLYLINE
  5
B3
330
1F
100
AcDbEntity
  8
0
100
AcDbPolyline
 90
        5
 70
     0
 43
0.0
 10
6018.281394953025
 20
11202.09195506823
 10
6068.281394953025
 20
11202.09195506823
 10
6068.281394953025
 20
11152.09195506823
 10
6018.281394953025
 20
11152.09195506823
 10
6018.281394953025
 20
11202.09195506823
  0
LWPOLYLINE
  5
B4
330
1F
100
AcDbEntity
  8
0
100
AcDbPolyline
 90
        5
 70
     0
 43
0.0
 10
6088.281394953025
 20
11202.09195506823
 10
6138.281394953025
 20
11202.09195506823
 10
6138.281394953025
 20
11152.09195506823
 10
6088.281394953025
 20
11152.09195506823
 10
6088.281394953025
 20
11202.09195506823
  0
LWPOLYLINE
  5
B5
330
1F
100
AcDbEntity
  8
0
100
AcDbPolyline
 90
        5
 70
     0
 43
0.0
 10
6158.281394953025
 20
11202.09195506823
 10
6208.281394953025
 20
11202.09195506823
 10
6208.281394953025
 20
11152.09195506823
 10
6158.281394953025
 20
11152.09195506823
 10
6158.281394953025
 20
11202.09195506823
  0
LWPOLYLINE
  5
B6
330
1F
100
AcDbEntity
  8
0
100
AcDbPolyline
 90
        6
 70
     0
 43
0.0
 10
5858.281394953025
 20
11467.95240569563
 10
5858.281394953025
 20
11292.09195506823
 10
5823.281394953025
 20
11292.09195506823
 10
5823.281394953025
 20
11202.09195506823
 10
5858.281394953025
 20
11202.09195506823
 10
5858.281394953025
 20
11152.09195506823
  0
LWPOLYLINE
  5
B7
330
1F
100
AcDbEntity
  8
0
100
AcDbPolyline
 90
        5
 70
     0
 43
0.0
 10
6263.281394953025
 20
11272.09195506823
 10
6313.281394953025
 20
11272.09195506823
 10
6313.281394953025
 20
11222.09195506823
 10
6263.281394953025
 20
11222.09195506823
 10
6263.281394953025
 20
11272.09195506823
  0
LWPOLYLINE
  5
B8
330
1F
100
AcDbEntity
  8
0
100
AcDbPolyline
 90
        5
 70
     0
 43
0.0
 10
6333.281394953025
 20
11272.09195506823
 10
6383.281394953025
 20
11272.09195506823
 10
6383.281394953025
 20
11222.09195506823
 10
6333.281394953025
 20
11222.09195506823
 10
6333.281394953025
 20
11272.09195506823
  0
LWPOLYLINE
  5
B9
330
1F
100
AcDbEntity
  8
0
100
AcDbPolyline
 90
        5
 70
     0
 43
0.0
 10
6403.281394953025
 20
11272.09195506823
 10
6453.281394953025
 20
11272.09195506823
 10
6453.281394953025
 20
11222.09195506823
 10
6403.281394953025
 20
11222.09195506823
 10
6403.281394953025
 20
11272.09195506823
  0
LWPOLYLINE
  5
BA
330
1F
100
AcDbEntity
  8
0
100
AcDbPolyline
 90
        5
 70
     0
 43
0.0
 10
6228.281394953025
 20
11342.09195506823
 10
6278.281394953025
 20
11342.09195506823
 10
6278.281394953025
 20
11292.09195506823
 10
6228.281394953025
 20
11292.09195506823
 10
6228.281394953025
 20
11342.09195506823
  0
LWPOLYLINE
  5
BB
330
1F
100
AcDbEntity
  8
0
100
AcDbPolyline
 90
        5
 70
     0
 43
0.0
 10
6298.281394953025
 20
11342.09195506823
 10
6348.281394953025
 20
11342.09195506823
 10
6348.281394953025
 20
11292.09195506823
 10
6298.281394953025
 20
11292.09195506823
 10
6298.281394953025
 20
11342.09195506823
  0
LWPOLYLINE
  5
BC
330
1F
100
AcDbEntity
  8
0
100
AcDbPolyline
 90
        5
 70
     0
 43
0.0
 10
6368.281394953025
 20
11342.09195506823
 10
6418.281394953025
 20
11342.09195506823
 10
6418.281394953025
 20
11292.09195506823
 10
6368.281394953025
 20
11292.09195506823
 10
6368.281394953025
 20
11342.09195506823
  0
LWPOLYLINE
  5
BD
330
1F
100
AcDbEntity
  8
0
100
AcDbPolyline
 90
        5
 70
     0
 43
0.0
 10
6228.281394953025
 20
11202.09195506823
 10
6278.281394953025
 20
11202.09195506823
 10
6278.281394953025
 20
11152.09195506823
 10
6228.281394953025
 20
11152.09195506823
 10
6228.281394953025
 20
11202.09195506823
  0
LWPOLYLINE
  5
BE
330
1F
100
AcDbEntity
  8
0
100
AcDbPolyline
 90
        5
 70
     0
 43
0.0
 10
6298.281394953025
 20
11202.09195506823
 10
6348.281394953025
 20
11202.09195506823
 10
6348.281394953025
 20
11152.09195506823
 10
6298.281394953025
 20
11152.09195506823
 10
6298.281394953025
 20
11202.09195506823
  0
LWPOLYLINE
  5
BF
330
1F
100
AcDbEntity
  8
0
100
AcDbPolyline
 90
        5
 70
     0
 43
0.0
 10
6368.281394953025
 20
11202.09195506823
 10
6418.281394953025
 20
11202.09195506823
 10
6418.281394953025
 20
11152.09195506823
 10
6368.281394953025
 20
11152.09195506823
 10
6368.281394953025
 20
11202.09195506823
  0
LWPOLYLINE
  5
C0
330
1F
100
AcDbEntity
  8
0
100
AcDbPolyline
 90
        6
 70
     0
 43
0.0
 10
6438.281394953025
 20
11466.1334287214
 10
6438.281394953025
 20
11292.09195506823
 10
6473.281394953025
 20
11292.09195506823
 10
6473.281394953025
 20
11202.09195506823
 10
6438.281394953025
 20
11202.09195506823
 10
6438.281394953025
 20
11152.09195506823
  0
LWPOLYLINE
  5
C1
330
1F
100
AcDbEntity
  8
0
100
AcDbPolyline
 90
        2
 70
     0
 43
0.0
 10
6438.177609609556
 20
11091.93844758463
 10
6438.281394953025
 20
11152.09195506823
  0
LWPOLYLINE
  5
C2
330
1F
100
AcDbEntity
  8
0
100
AcDbPolyline
 90
        2
 70
     0
 43
0.0
 10
5673.281394953025
 20
10841.93844758463
 10
6623.281394953025
 20
10841.93844758463
  0
LWPOLYLINE
  5
C3
330
1F
100
AcDbEntity
  8
0
100
AcDbPolyline
 90
        2
 70
     0
 43
0.0
 10
6163.281394953025
 20
7201.938447584631
 10
6163.281394953025
 20
7111.938447584631
  0
LWPOLYLINE
  5
C4
330
1F
100
AcDbEntity
  8
0
100
AcDbPolyline
 90
        2
 70
     0
 43
0.0
 10
6133.281394953025
 20
7201.938447584631
 10
6133.281394953025
 20
7111.938447584631
  0
LWPOLYLINE
  5
C5
330
1F
100
AcDbEntity
  8
0
100
AcDbPolyline
 90
        2
 70
     0
 43
0.0
 10
6163.281394953025
 20
7111.938447584631
 10
6178.281394953025
 20
7096.938447584631
  0
LWPOLYLINE
  5
C6
330
1F
100
AcDbEntity
  8
0
100
AcDbPolyline
 90
        2
 70
     0
 43
0.0
 10
6133.281394953025
 20
7111.938447584631
 10
6118.281394953025
 20
7096.938447584631
  0
LWPOLYLINE
  5
C7
330
1F
100
AcDbEntity
  8
0
100
AcDbPolyline
 90
        2
 70
     0
 43
0.0
 10
6118.281394953025
 20
7096.938447584631
 10
6118.281394953025
 20
6596.938447584631
  0
LWPOLYLINE
  5
C8
330
1F
100
AcDbEntity
  8
0
100
AcDbPolyline
 90
        2
 70
     0
 43
0.0
 10
6178.281394953025
 20
7096.938447584631
 10
6178.281394953025
 20
6596.938447584631
  0
LWPOLYLINE
  5
C9
330
1F
100
AcDbEntity
  8
0
100
AcDbPolyline
 90
        2
 70
     0
 43
0.0
 10
6163.281394953025
 20
7331.938447584631
 10
6279.942199570709
 20
8273.233915259596
  0
LWPOLYLINE
  5
CA
330
1F
100
AcDbEntity
  8
0
100
AcDbPolyline
 90
        2
 70
     0
 43
0.0
 10
6133.281394953025
 20
7331.938447584631
 10
6016.739147181273
 20
8273.233915259596
  0
LWPOLYLINE
  5
CB
330
1F
100
AcDbEntity
  8
0
100
AcDbPolyline
 90
       18
 70
     0
 43
0.0
 10
6431.043438012828
 20
8506.60546331969
 10
6540.299150215113
 20
8607.979949548317
 10
6614.820283303154
 20
8737.054338294489
 10
6647.985307571595
 20
8882.359803684463
 10
6636.847365071881
 20
9030.985317455838
 10
6582.39611087332
 20
9169.72485047765
 10
6489.469777866616
 20
9286.2507863926
 10
6366.325278539793
 20
9370.209284428856
 10
6223.904542069067
 20
9414.140263590263
 10
6074.862275892985
 20
9414.140263590263
 10
5932.44153942226
 20
9370.209284428856
 10
5809.297040095669
 20
9286.2507863926
 10
5716.370707088732
 20
9169.72485047765
 10
5661.919452890172
 20
9030.985317455838
 10
5650.781510390458
 20
8882.359803684463
 10
5683.946534658899
 20
8737.054338294489
 10
5758.46766774694
 20
8607.979949548317
 10
5867.723379949224
 20
8506.60546331969
  0
LWPOLYLINE
  5
CC
330
1F
100
AcDbEntity
  8
0
100
AcDbPolyline
 90
       20
 70
     0
 43
0.0
 10
6054.693530382239
 20
8780.840306755621
 10
5924.691674537607
 20
8590.16260498669
 10
5837.533920712885
 20
8671.03318224725
 10
5778.08536244987
 20
8774.001105595496
 10
5751.628265035921
 20
8889.917223174707
 10
5760.513457680936
 20
9008.481879248342
 10
5803.951452026726
 20
9119.160083811905
 10
5878.082591651124
 20
9212.117592686613
 10
5976.319999479339
 20
9279.094723271672
 10
6089.934850718011
 20
9314.140263590263
 10
6208.831967244041
 20
9314.140263590263
 10
6322.446818482713
 20
9279.094723271672
 10
6420.684226310928
 20
9212.117592686613
 10
6494.815365935327
 20
9119.160083811905
 10
6538.253360281116
 20
9008.481879248342
 10
6547.138552926132
 20
8889.917223174707
 10
6520.681455512182
 20
8774.001105595496
 10
6461.232897249167
 20
8671.03318224725
 10
6374.075143424678
 20
8590.16260498669
 10
6244.073287579813
 20
8780.840306755621
  0
LWPOLYLINE
  5
CD
330
1F
100
AcDbEntity
  8
0
100
AcDbPolyline
 90
       14
 70
     0
 43
0.0
 10
6244.164634852554
 20
8989.718011568708
 10
6244.598288990208
 20
9098.54357605445
 10
6242.471345908591
 20
9126.925659034925
 10
6232.073131121346
 20
9153.419878223678
 10
6214.327571644098
 20
9175.672105977836
 10
6190.811438311473
 20
9191.70513420907
 10
6163.61424276873
 20
9200.094357999391
 10
6135.152575193322
 20
9200.094357999391
 10
6107.955379650812
 20
9191.705134209129
 10
6084.439246317954
 20
9175.672105977836
 10
6066.693686840707
 20
9153.419878223678
 10
6056.295472053462
 20
9126.925659034925
 10
6054.168528972077
 20
9098.54357605445
 10
6054.693530382239
 20
8966.794401164749
  0
LWPOLYLINE
  5
CE
330
1F
100
AcDbEntity
  8
0
100
AcDbPolyline
 90
        2
 70
     0
 43
0.0
 10
6244.073287579813
 20
8780.840306755621
 10
6244.164634852554
 20
8989.718011568708
  0
LWPOLYLINE
  5
CF
330
1F
100
AcDbEntity
  8
0
100
AcDbPolyline
 90
        2
 70
     0
 43
0.0
 10
6054.693530382239
 20
8780.840306755621
 10
6054.693530382239
 20
8966.794401164749
  0
LWPOLYLINE
  5
D0
330
1F
100
AcDbEntity
  8
0
100
AcDbPolyline
 90
        2
 70
     0
 43
0.0
 10
6133.281394953025
 20
7231.938447584631
 10
6133.281394953025
 20
7331.938447584631
  0
LWPOLYLINE
  5
D1
330
1F
100
AcDbEntity
  8
0
100
AcDbPolyline
 90
        2
 70
     0
 43
0.0
 10
6163.281394953025
 20
7231.938447584631
 10
6163.281394953025
 20
7331.938447584631
  0
LWPOLYLINE
  5
D2
330
1F
100
AcDbEntity
  8
0
100
AcDbPolyline
 90
        4
 70
     0
 43
0.0
 10
5867.723379949224
 20
8506.60546331969
 10
5893.281394953025
 20
8481.453482996032
 10
5928.281394953025
 20
8411.453482996032
 10
6016.739147181273
 20
8273.233915259596
  0
LWPOLYLINE
  5
D3
330
1F
100
AcDbEntity
  8
0
100
AcDbPolyline
 90
        4
 70
     0
 43
0.0
 10
6431.043438012828
 20
8506.60546331969
 10
6403.281394953025
 20
8481.453482996032
 10
6368.281394953025
 20
8411.453482996032
 10
6279.942199570709
 20
8273.233915259596
  0
CIRCLE
  5
D4
330
1F
100
AcDbEntity
  8
0
100
AcDbCircle
 10
5938.281394953025
 20
8476.453482996032
 30
0.0
 40
15.0
  0
CIRCLE
  5
D5
330
1F
100
AcDbEntity
  8
0
100
AcDbCircle
 10
6008.281394953025
 20
8476.453482996032
 30
0.0
 40
15.0
  0
CIRCLE
  5
D6
330
1F
100
AcDbEntity
  8
0
100
AcDbCircle
 10
6078.281394953025
 20
8476.453482996032
 30
0.0
 40
15.0
  0
CIRCLE
  5
D7
330
1F
100
AcDbEntity
  8
0
100
AcDbCircle
 10
6148.281394953025
 20
8476.453482996032
 30
0.0
 40
15.0
  0
CIRCLE
  5
D8
330
1F
100
AcDbEntity
  8
0
100
AcDbCircle
 10
5973.281394953025
 20
8416.453482996032
 30
0.0
 40
15.0
  0
CIRCLE
  5
D9
330
1F
100
AcDbEntity
  8
0
100
AcDbCircle
 10
6043.281394953025
 20
8416.453482996032
 30
0.0
 40
15.0
  0
CIRCLE
  5
DA
330
1F
100
AcDbEntity
  8
0
100
AcDbCircle
 10
6113.281394953025
 20
8416.453482996032
 30
0.0
 40
15.0
  0
CIRCLE
  5
DB
330
1F
100
AcDbEntity
  8
0
100
AcDbCircle
 10
6183.281394953025
 20
8416.453482996032
 30
0.0
 40
15.0
  0
CIRCLE
  5
DC
330
1F
100
AcDbEntity
  8
0
100
AcDbCircle
 10
6218.281394953025
 20
8476.453482996032
 30
0.0
 40
15.0
  0
CIRCLE
  5
DD
330
1F
100
AcDbEntity
  8
0
100
AcDbCircle
 10
6288.281394953025
 20
8476.453482996032
 30
0.0
 40
15.0
  0
CIRCLE
  5
DE
330
1F
100
AcDbEntity
  8
0
100
AcDbCircle
 10
6358.281394953025
 20
8476.453482996032
 30
0.0
 40
15.0
  0
CIRCLE
  5
DF
330
1F
100
AcDbEntity
  8
0
100
AcDbCircle
 10
6253.281394953025
 20
8416.453482996032
 30
0.0
 40
15.0
  0
CIRCLE
  5
E0
330
1F
100
AcDbEntity
  8
0
100
AcDbCircle
 10
6323.281394953025
 20
8416.453482996032
 30
0.0
 40
15.0
  0
CIRCLE
  5
E1
330
1F
100
AcDbEntity
  8
0
100
AcDbCircle
 10
6008.281394953025
 20
8356.453482996032
 30
0.0
 40
15.0
  0
CIRCLE
  5
E2
330
1F
100
AcDbEntity
  8
0
100
AcDbCircle
 10
6078.281394953025
 20
8356.453482996032
 30
0.0
 40
15.0
  0
CIRCLE
  5
E3
330
1F
100
AcDbEntity
  8
0
100
AcDbCircle
 10
6148.281394953025
 20
8356.453482996032
 30
0.0
 40
15.0
  0
CIRCLE
  5
E4
330
1F
100
AcDbEntity
  8
0
100
AcDbCircle
 10
6218.281394953025
 20
8356.453482996032
 30
0.0
 40
15.0
  0
CIRCLE
  5
E5
330
1F
100
AcDbEntity
  8
0
100
AcDbCircle
 10
6288.281394953025
 20
8356.453482996032
 30
0.0
 40
15.0
  0
CIRCLE
  5
E6
330
1F
100
AcDbEntity
  8
0
100
AcDbCircle
 10
6043.281394953025
 20
8296.453482996032
 30
0.0
 40
15.0
  0
CIRCLE
  5
E7
330
1F
100
AcDbEntity
  8
0
100
AcDbCircle
 10
6113.281394953025
 20
8296.453482996032
 30
0.0
 40
15.0
  0
CIRCLE
  5
E8
330
1F
100
AcDbEntity
  8
0
100
AcDbCircle
 10
6183.281394953025
 20
8296.453482996032
 30
0.0
 40
15.0
  0
CIRCLE
  5
E9
330
1F
100
AcDbEntity
  8
0
100
AcDbCircle
 10
6253.281394953025
 20
8296.453482996032
 30
0.0
 40
15.0
  0
ENDSEC
  0
SECTION
  2
OBJECTS
  0
DICTIONARY
  5
C
330
0
100
AcDbDictionary
281
     1
  3
ACAD_GROUP
350
D
  3
ACAD_IMAGE_VARS
350
6A
  3
ACAD_LAYOUT
350
1A
  3
ACAD_MLINESTYLE
350
17
  3
ACAD_PLOTSETTINGS
350
19
  3
ACAD_PLOTSTYLENAME
350
E
  3
ACAD_SCALELIST
350
40
  3
AcDbVariableDictionary
350
3D
  3
APPDATA
350
71
  0
DICTIONARY
  5
D
102
{ACAD_REACTORS
330
C
102
}
330
C
100
AcDbDictionary
281
     1
  0
RASTERVARIABLES
  5
6A
102
{ACAD_REACTORS
330
C
102
}
330
C
100
AcDbRasterVariables
 90
        0
 70
     1
 71
     1
 72
     1
  0
DICTIONARY
  5
1A
102
{ACAD_REACTORS
330
C
102
}
330
C
100
AcDbDictionary
281
     1
  3
Model
350
22
  3
Sheet1
350
1E
  3
Sheet2
350
26
  0
DICTIONARY
  5
17
102
{ACAD_REACTORS
330
C
102
}
330
C
100
AcDbDictionary
281
     1
  3
Standard
350
18
  0
DICTIONARY
  5
19
102
{ACAD_REACTORS
330
C
102
}
330
C
100
AcDbDictionary
281
     1
  0
ACDBDICTIONARYWDFLT
  5
E
102
{ACAD_REACTORS
330
C
102
}
330
C
100
AcDbDictionary
281
     1
  3
Normal
350
F
100
AcDbDictionaryWithDefault
340
F
  0
DICTIONARY
  5
40
102
{ACAD_REACTORS
330
C
102
}
330
C
100
AcDbDictionary
281
     1
  3
A0
350
41
  3
A1
350
42
  3
A2
350
43
  3
A3
350
44
  3
A4
350
45
  3
A5
350
46
  3
A6
350
47
  3
A7
350
48
  3
A8
350
49
  3
A9
350
4A
  3
B0
350
4B
  3
B1
350
4C
  3
B2
350
4D
  3
B3
350
4E
  3
B4
350
4F
  3
B5
350
50
  3
B6
350
51
  3
B7
350
52
  3
B8
350
53
  3
B9
350
54
  3
C0
350
55
  3
C1
350
56
  3
C2
350
57
  3
C3
350
58
  3
C4
350
59
  3
C5
350
5A
  3
C6
350
5B
  3
C7
350
5C
  3
C8
350
5D
  3
C9
350
5E
  3
D0
350
5F
  3
D1
350
60
  3
D2
350
61
  0
DICTIONARY
  5
3D
102
{ACAD_REACTORS
330
C
102
}
330
C
100
AcDbDictionary
281
     1
  3
CANNOSCALE
350
EC
  3
XCLIPFRAME
350
70
  3
CANNOSCALE
350
EB
  0
DICTIONARY
  5
71
102
{ACAD_REACTORS
330
C
102
}
330
C
100
AcDbDictionary
281
     1
  0
LAYOUT
  5
22
102
{ACAD_REACTORS
330
1A
102
}
330
1A
100
AcDbPlotSettings
  1

  2
none_device
  4
ISO_A3_(420.00_x_297.00_MM)
  6

 40
7.5
 41
20.0
 42
7.5
 43
20.0
 44
420.0
 45
297.0
 46
20.78282828282826
 47
0.0
 48
0.0
 49
0.0
140
0.0
141
0.0
142
1.0
143
1.155642023346303
 70
  1204
 72
     1
 73
     0
 74
     1
  7
monochrome.ctb
 75
     0
147
0.8653198653198654
148
-134.1869158878504
149
0.0
100
AcDbLayout
  1
Model
 70
     1
 71
     0
 10
0.0
 20
0.0
 11
420.0
 21
297.0
 12
0.0
 22
0.0
 32
0.0
 14
1.000000000000000E+20
 24
1.000000000000000E+20
 34
1.000000000000000E+20
 15
-1.000000000000000E+20
 25
-1.000000000000000E+20
 35
-1.000000000000000E+20
146
0.0
 13
0.0
 23
0.0
 33
0.0
 16
1.0
 26
0.0
 36
0.0
 17
0.0
 27
1.0
 37
0.0
 76
     0
330
1F
331
29
  0
LAYOUT
  5
1E
102
{ACAD_REACTORS
330
1A
102
}
330
1A
100
AcDbPlotSettings
  1

  2
none_device
  4

  6

 40
0.0
 41
0.0
 42
0.0
 43
0.0
 44
0.0
 45
0.0
 46
0.0
 47
0.0
 48
0.0
 49
0.0
140
0.0
141
0.0
142
1.0
143
1.0
 70
   688
 72
     0
 73
     0
 74
     5
  7

 75
    16
147
1.0
148
0.0
149
0.0
100
AcDbLayout
  1
Sheet1
 70
     1
 71
     1
 10
0.0
 20
0.0
 11
420.0
 21
297.0
 12
0.0
 22
0.0
 32
0.0
 14
1.000000000000000E+20
 24
1.000000000000000E+20
 34
1.000000000000000E+20
 15
-1.000000000000000E+20
 25
-1.000000000000000E+20
 35
-1.000000000000000E+20
146
0.0
 13
0.0
 23
0.0
 33
0.0
 16
1.0
 26
0.0
 36
0.0
 17
0.0
 27
1.0
 37
0.0
 76
     0
330
1B
  0
LAYOUT
  5
26
102
{ACAD_REACTORS
330
1A
102
}
330
1A
100
AcDbPlotSettings
  1

  2
none_device
  4

  6

 40
0.0
 41
0.0
 42
0.0
 43
0.0
 44
0.0
 45
0.0
 46
0.0
 47
0.0
 48
0.0
 49
0.0
140
0.0
141
0.0
142
1.0
143
1.0
 70
   688
 72
     0
 73
     0
 74
     5
  7

 75
    16
147
1.0
148
0.0
149
0.0
100
AcDbLayout
  1
Sheet2
 70
     1
 71
     2
 10
0.0
 20
0.0
 11
0.0
 21
0.0
 12
0.0
 22
0.0
 32
0.0
 14
0.0
 24
0.0
 34
0.0
 15
0.0
 25
0.0
 35
0.0
146
0.0
 13
0.0
 23
0.0
 33
0.0
 16
1.0
 26
0.0
 36
0.0
 17
0.0
 27
1.0
 37
0.0
 76
     0
330
23
  0
MLINESTYLE
  5
18
102
{ACAD_REACTORS
330
17
102
}
330
17
100
AcDbMlineStyle
  2
Standard
 70
     0
  3

 62
   256
 51
90.0
 52
90.0
 71
     2
 49
0.5
 62
   256
  6
BYLAYER
 49
-0.5
 62
   256
  6
BYLAYER
  0
ACDBPLACEHOLDER
  5
F
102
{ACAD_REACTORS
330
E
102
}
330
E
  0
SCALE
  5
41
102
{ACAD_REACTORS
330
40
102
}
330
40
100
AcDbScale
 70
     0
300
1:1
140
1.0
141
1.0
290
     1
  0
SCALE
  5
42
102
{ACAD_REACTORS
330
40
102
}
330
40
100
AcDbScale
 70
     0
300
1:2
140
1.0
141
2.0
290
     0
  0
SCALE
  5
43
102
{ACAD_REACTORS
330
40
102
}
330
40
100
AcDbScale
 70
     0
300
1:4
140
1.0
141
4.0
290
     0
  0
SCALE
  5
44
102
{ACAD_REACTORS
330
40
102
}
330
40
100
AcDbScale
 70
     0
300
1:5
140
1.0
141
5.0
290
     0
  0
SCALE
  5
45
102
{ACAD_REACTORS
330
40
102
}
330
40
100
AcDbScale
 70
     0
300
1:8
140
1.0
141
8.0
290
     0
  0
SCALE
  5
46
102
{ACAD_REACTORS
330
40
102
}
330
40
100
AcDbScale
 70
     0
300
1:10
140
1.0
141
10.0
290
     0
  0
SCALE
  5
47
102
{ACAD_REACTORS
330
40
102
}
330
40
100
AcDbScale
 70
     0
300
1:16
140
1.0
141
16.0
290
     0
  0
SCALE
  5
48
102
{ACAD_REACTORS
330
40
102
}
330
40
100
AcDbScale
 70
     0
300
1:20
140
1.0
141
20.0
290
     0
  0
SCALE
  5
49
102
{ACAD_REACTORS
330
40
102
}
330
40
100
AcDbScale
 70
     0
300
1:30
140
1.0
141
30.0
290
     0
  0
SCALE
  5
4A
102
{ACAD_REACTORS
330
40
102
}
330
40
100
AcDbScale
 70
     0
300
1:40
140
1.0
141
40.0
290
     0
  0
SCALE
  5
4B
102
{ACAD_REACTORS
330
40
102
}
330
40
100
AcDbScale
 70
     0
300
1:50
140
1.0
141
50.0
290
     0
  0
SCALE
  5
4C
102
{ACAD_REACTORS
330
40
102
}
330
40
100
AcDbScale
 70
     0
300
1:100
140
1.0
141
100.0
290
     0
  0
SCALE
  5
4D
102
{ACAD_REACTORS
330
40
102
}
330
40
100
AcDbScale
 70
     0
300
2:1
140
2.0
141
1.0
290
     0
  0
SCALE
  5
4E
102
{ACAD_REACTORS
330
40
102
}
330
40
100
AcDbScale
 70
     0
300
4:1
140
4.0
141
1.0
290
     0
  0
SCALE
  5
4F
102
{ACAD_REACTORS
330
40
102
}
330
40
100
AcDbScale
 70
     0
300
8:1
140
8.0
141
1.0
290
     0
  0
SCALE
  5
50
102
{ACAD_REACTORS
330
40
102
}
330
40
100
AcDbScale
 70
     0
300
10:1
140
10.0
141
1.0
290
     0
  0
SCALE
  5
51
102
{ACAD_REACTORS
330
40
102
}
330
40
100
AcDbScale
 70
     0
300
100:1
140
100.0
141
1.0
290
     0
  0
SCALE
  5
52
102
{ACAD_REACTORS
330
40
102
}
330
40
100
AcDbScale
 70
     0
300
1/128" = 1'-0"
140
0.0078125
141
12.0
290
     0
  0
SCALE
  5
53
102
{ACAD_REACTORS
330
40
102
}
330
40
100
AcDbScale
 70
     0
300
1/64" = 1'-0"
140
0.015625
141
12.0
290
     0
  0
SCALE
  5
54
102
{ACAD_REACTORS
330
40
102
}
330
40
100
AcDbScale
 70
     0
300
1/32" = 1'-0"
140
0.03125
141
12.0
290
     0
  0
SCALE
  5
55
102
{ACAD_REACTORS
330
40
102
}
330
40
100
AcDbScale
 70
     0
300
1/16" = 1'-0"
140
0.0625
141
12.0
290
     0
  0
SCALE
  5
56
102
{ACAD_REACTORS
330
40
102
}
330
40
100
AcDbScale
 70
     0
300
3/32" = 1'-0"
140
0.09375
141
12.0
290
     0
  0
SCALE
  5
57
102
{ACAD_REACTORS
330
40
102
}
330
40
100
AcDbScale
 70
     0
300
1/8" = 1'-0"
140
0.125
141
12.0
290
     0
  0
SCALE
  5
58
102
{ACAD_REACTORS
330
40
102
}
330
40
100
AcDbScale
 70
     0
300
3/16" = 1'-0"
140
0.1875
141
12.0
290
     0
  0
SCALE
  5
59
102
{ACAD_REACTORS
330
40
102
}
330
40
100
AcDbScale
 70
     0
300
1/4" = 1'-0"
140
0.25
141
12.0
290
     0
  0
SCALE
  5
5A
102
{ACAD_REACTORS
330
40
102
}
330
40
100
AcDbScale
 70
     0
300
3/8" = 1'-0"
140
0.375
141
12.0
290
     0
  0
SCALE
  5
5B
102
{ACAD_REACTORS
330
40
102
}
330
40
100
AcDbScale
 70
     0
300
1/2" = 1'-0"
140
0.5
141
12.0
290
     0
  0
SCALE
  5
5C
102
{ACAD_REACTORS
330
40
102
}
330
40
100
AcDbScale
 70
     0
300
3/4" = 1'-0"
140
0.75
141
12.0
290
     0
  0
SCALE
  5
5D
102
{ACAD_REACTORS
330
40
102
}
330
40
100
AcDbScale
 70
     0
300
1" = 1'-0"
140
1.0
141
12.0
290
     0
  0
SCALE
  5
5E
102
{ACAD_REACTORS
330
40
102
}
330
40
100
AcDbScale
 70
     0
300
1-1/2" = 1'-0"
140
1.5
141
12.0
290
     0
  0
SCALE
  5
5F
102
{ACAD_REACTORS
330
40
102
}
330
40
100
AcDbScale
 70
     0
300
3" = 1'-0"
140
3.0
141
12.0
290
     0
  0
SCALE
  5
60
102
{ACAD_REACTORS
330
40
102
}
330
40
100
AcDbScale
 70
     0
300
6" = 1'-0"
140
6.0
141
12.0
290
     0
  0
SCALE
  5
61
102
{ACAD_REACTORS
330
40
102
}
330
40
100
AcDbScale
 70
     0
300
1'-0" = 1'-0"
140
12.0
141
12.0
290
     0
  0
DICTIONARYVAR
  5
EC
102
{ACAD_REACTORS
330
3D
102
}
330
3D
100
DictionaryVariables
280
     0
  1
1:1
  0
DICTIONARYVAR
  5
70
102
{ACAD_REACTORS
330
3D
102
}
330
3D
100
DictionaryVariables
280
     0
  1
0
  0
DICTIONARYVAR
  5
EB
102
{ACAD_REACTORS
330
3D
102
}
330
3D
100
DictionaryVariables
280
     0
  1
1:1
  0
ENDSEC
  0
EOF
